0

Let Me Go (bass) 3 Doors Down

Tekst piosenki

  • Tekst piosenki damballa
note:
-------------------------------
| ^ - Accent or play louder   |
| \ - slide towards the 1st   |
|     fret                    |
| / - slide away from the     |
|     first fret              |
|-----------------------------|


---------------------------------------------------------------------------

Standard Tuning


intro: no bass

a beat before verse 1:
(with the running cymbals)

G|-------|
D|-------|
A|-------|
E|--9\---|


verse 1:

G|----------|----------|----------|----------|
D|----------|----------|----------|----------|
A|--4-4--2--|--0-0--2--|-04-4--2--|--0-0--2--|
E|----------|----------|----------|----------|

G|----------|----------|----------|----------|
D|----------|----------|----------|----------|
A|-04-4--2--|--0-0--2--|-04-4--2--|--0-0--2--|
E|----------|----------|----------|----------|


pre-chorus:

G|----------|----------|-----------|-----------|
D|----------|----------|-----------|-----------|
A|--4-4--2--|----------|-----------|--0--0--00-|
E|----------|--4-4--5--|--0-0--2--2|-----------|

G|----------|----------|-----------|--------------|
D|----------|----------|-----------|--------------|
A|--4-4--2--|----------|-----------|--0---0000000-|
E|----------|--4-4--5--|--0-0--2--2|--------------|


chorus 1:

G|----------|----------|----------|----------|
D|----------|----------|----------|----------|
A|-------2--|--04-4--0-|--04-4--2-|--04-4--0-|
E|--0-0-----|----------|----------|----------|

G|----------|----------|----------|----------|
D|----------|----------|----------|----------|
A|-------2--|--04-4--0-|--04-4--2-|--4-4--5--|
E|--0-0-----|----------|----------|----------|


post-verse:

G|----------|----------|----------|-----------|
D|----------|----------|----------|-----------|
A|--4-4--2--|--0-0--2--|--04-4--2-|--^-^-^----|
E|----------|----------|----------|--2-4-5--\-|

                                         /\
				|hold this note and   |
				|slide off just before|
				|the verse 2 starts.  |


verse 2:

G|----------|----------|----------|----------|
D|----------|----------|----------|----------|
A|--4-4--2--|--0-0--2--|-04-4--2--|--0-0--2--|
E|----------|----------|----------|----------|

G|----------|----------|----------|----------|
D|----------|----------|----------|----------|
A|-04-4--2--|--0-0--2--|-04-4--2--|--0-0--2--|
E|----------|----------|----------|----------|


pre-chorus:


G|----------|----------|-----------|-----------|
D|----------|----------|-----------|-----------|
A|--4-4--2--|----------|-----------|--0--0--00-|
E|----------|--4-4--5--|--0-0--2--2|-----------|

G|----------|----------|-----------|--------------|
D|----------|----------|-----------|--------------|
A|--4-4--2--|----------|-----------|--0--0000000--|
E|----------|--4-4--5--|--0-0--2--2|--------------|


chorus 2:

G|----------|----------|----------|----------|
D|----------|----------|----------|----------|
A|-------2--|--04-4--0-|--04-4--2-|--04-4--0-|
E|--0-0-----|----------|----------|----------|

G|----------|----------|----------|----------|
D|----------|----------|----------|----------|
A|-------2--|--04-4--0-|--04-4--2-|--4-4--5--|
E|--0-0-----|----------|----------|----------|


during the [guitar solo]:

G|-------|----------|-------|-------|   \
D|-------|----------|-------|-------|    \
A|--4-4--|-4/7-7---7|-2-2-2-|0-0-0--|     \
E|-------|----------|-------|-------|      \   no
					     singing
G|-------|----------|-------|-------|      /   yet
D|-------|----------|-------|-------|     /
A|--4-4--|-4/7-7---7|-2-2-2-|0-0-0--|    /
E|-------|----------|-------|-------|   /

-------------------
    singing starts
     from this bar
G|-------|----------|-------|-------|
D|-------|----------|-------|-------|
A|--4-4--|-4/7-7---7|-2-2-2-|0-0-0--|
E|-------|----------|-------|-------|

G|-------|----------|-------|-------|
D|-------|----------|-------|-------|
A|--4-4--|-4/7-7---7|-2-2-2-|0-0-0--|
E|-------|----------|-------|-------|

G|-------|----------|-------|-------|
D|-------|----------|-------|-------|
A|--4-4--|-4/7-7---7|-2-2-2-|0-0-0--|
E|-------|----------|-------|-------|

G|-------|----------|-------|-------|
D|-------|----------|-------|-^^^---|
A|--4-4--|-4/7-7---7|-2-2-2-|-220---|
E|-------|----------|-------|-------|


chorus [final]:

G|----------|----------|----------|----------|
D|----------|----------|----------|----------|
A|-------2--|--04-4--0-|--04-4--2-|--04-4--0-|
E|--0-0-----|----------|----------|----------|

G|----------|----------|----------|----------|
D|----------|----------|----------|----------|
A|-------2--|--04-4--0-|--04-4--2-|--4-4--5--|
E|--0-0-----|----------|----------|----------|

G|----------|----------|----------|----------|
D|----------|----------|----------|----------|
A|-------2--|--04-4--0-|--04-4--2-|--04-4--0-|
E|--0-0-----|----------|----------|----------|

G|----------|----------|----------|----------|
D|----------|----------|----------|--^-^--^--|
A|-------2--|--04-4--0-|--04-4--2-|--4-4--5--|
E|--0-0-----|----------|----------|----------|

Oceń to opracowanie
Kontrybucje:
damballa
damballa

Dodaj własne wykonanie

Umiesz zagrać tą piosenkę? Nagraj swoje wykonanie i pokaż innym użytkownikom jak grasz!
anonim