Drop the ball Anthrax

Tekst piosenki

  • Tekst piosenki Angie
INTRO INTRO FILL (2nd guitar)
harm. pm..
E ------------------|----------------------------------
B ------------------|----------------------------------
G ------------------|----------------------------------
D ---------|----------------------------------
A --0-0----|----------------------------------
E --0-0----|-6^-------6^------6^--------6^----

VERSE
pm...... pm......
E -----------------------------------------------------
B -----------------------------------------------------
G -----------------------------------------------------
D -----------------------------------------------------
A -6---0-0-0-0---6---0-0-0-0---------------------------
E -6^--0-0-0-0---6^--0-0-0-0---------------------------

VERSE FILL 1 VERSE FILL 2
pm..
E -------------|---------------------------------------
B -------------|---------------------------------------
G -------------|--------10-----------------------------
D -------------|--------10-----------------------------
A -0-0--3------|--------8------------------------------
E -0-0--3------|---------------------------------------

BRIDGE BRIDGE 2
E ------------------------|-----------------------------
B ------------------------|-----------------------------
G ------------------------|-----------------------------
D ------------------------|-----------------------------
A -0---0---0---------5----|-3-3---3-3---3-3-------------
E -0---0---0---0-5-6---6--|-3-3---3-3---3-3--0-3-0-5-0-6


Oceń to opracowanie
Kontrybucje:
Angie
Angie
anonim