Popraw Opracowanie
Transponuj
0

Shockwave Black Sabbath

Tekst piosenki

  • Tekst piosenki s314ryt
Shockwave
Black Sabbath - Never Say Die

fig 1
|-----------------------------------------------------------------
|-----------------------------------------------------------------
|-------5-5---------3--3/----------5-5---------3-------3----------
|-------5-5---1-1p0-3--3/--3h4p3---5-5---1-1p0-3-3-4-5-3----------
|---1-2-3-3---------1--1/--------6-3-3---------1-3-4-5-1----------
|-3----------------------------------------------1-2-3------------

fig 2
|---------------------8-8-8-----------------------8-8-8------------------
|---------------------8-8-8-----------------------8-8-8------------------
|--------8-8\---8-8\--8-8-8----------8-8\---8-8\--8-8-8------------------
|------8-8-8\---8-8\---------------8-8-8\---8-8\----------------------8--
|-8h10------------------------8h10------------------------8-7-6-8-7-6-8--
|---------------------------------------------------------------------6--


fig 3
|----------------8-8-8-------------------8-8-8------
|----------------8-8-8-------------------8-8-8------
|----------10-8--8-8-8-------------10-8--8-8-8------
|-10-10-10-10-8-----------10-10-10-10-8-------------
|-10-10-10--8-6-----------10-10-10--8-6-------------
|--8--8--8-----------------8--8--8------------------

fig 4
|-----------------------------------------------------------------
|-----------------------------------------------------------------
|-5-5-3-5-3-5---3---2------5-5-3-5-3-5---3---2--------------------
|-5-5-3-5-3-5---3---2---5--5-5-3-5-3-5---3---2---5----------------
|-3-3-1-3-1-3---1---0---5--3-3-1-3-1-3---1---0---5----------------
|-----------------------3------------------------3----------------


|------------------------------------------|--------
|------------------------------------------|--------
|-7-7-5-7-5-7---5---4---2--7-7-5-7---------|-5-5--2-
|-7-7-5-7-5-7---5---4---2--7-7-5-7-5-4-3---|-5-5--2-
|-5-5-3-5-3-5---3---2---0--5-5-3-5-5-4-3---|-3-3--0-
|----------------------------------3-2-1---|--------

fig 5
|----------------------------------------------------------
|----------------------------------------------------------
|--12--11--12-----12--11--12-12/14-------------------------
|--12--11--12-----12--11--12-12/14-------------------------
|-----------------------------------0--0-------------------
|----------------------------------------------------------

fig 6                                 ...freeze your life in time...
|--------------------------7-------||-------------------------
|---------6--5--------10---8-------||-------------------------
|--7------5--4--7------9---0-------||----5-5-5-5-5-5----------
|--7------3--2--7------7--(0)------||----5-5-5-5-5-5----------
|--5------------5------------------||----3-3-3-3-3-3----------
|----------------------------------||-------------------------


fig 7
|--0-0-0-----------||--2-2-2---3-------||-0-0-0---2-------------
|--0-0-0----2------||--3-3-3---1-------||-0-0-0---3-------------
|--1-1-1----3------||--2-2-2---0-------||-1-1-1---2-------------
|--2-2-2----4------||--0-0-0---2-------||-2-2-2---0-------------
|--2-2-2----4------||----------3-------||-----------------------
|--0-0-0----2------||------------------||-----------------------
||                 ||                  ||
|------------------||------------------||--------------------
|------------------||------------------||--------------------
|--9-9-9---11-(x 4)||--7-7-7---5-(x 2)-||-9-9-9---7--(x 2)---
|--9-9-9---11------||--7-7-7---5-------||-9-9-9---7----------
|--7-7-7----9------||--5-5-5---3-------||-7-7-7---5----------
|------------------||------------------||--------------------


fig 8
|----------------------------|-----------------------------
|----------------------------|-----------------------------
|-12p9------------------9----|--^9-------------------------
|------12-10-9h10-12p10---12-|-----10p9-7----/9-7~---------
|----------------------------|-----------------------------
|----------------------------|-----------------------------

                     fig 9 w/solo
|-----------------||--------------------------------------------------
|-----------------||--------------------------------------------------
|-^7-5------5-----||--------------------------------------------------
|---------7---7---||------------------------------------------------2-
|-----------------||--5/7--5-7--5--------------5/7--5-7--5------------
|-----------------||--------------7-6-5-3p0-0--------------7-6-5-3p0--


          Don't expect me to tab that damn solo.


fig 10
|-----------------|----------------------|------------------
|--------^6-------|----------------------|---------^6-------
|--^7-5-----------|------/9-7-5-7-5------|------^7----------
|-----------7^-7--|--7-5------------7^-7-|-7-5--------^7--7-
|-----------------|----------------------|------------------
|-----------------|----------------------|------------------

Oceń to opracowanie

Kontrybucje
s314ryt

Wakacyjny Konkurs Śpiewnikowy

Pula nagród w konkursie ponad 10.000 zł!
Przysyłaj opracowania piosenek i zdobądź bony na zakupy w sklepie muzycznym.
Zapoznaj się z regulaminem konkursu.
anonim