Popraw Opracowanie
Transponuj
0

No Control Bullet For My Valentine

Tekst piosenki

  • Tekst piosenki nem
INTRO (PLAYED WITH ONE GUITAR)
D|------------------------------------------------------|
A|------------------------------------------------------|
F|-------------------------10---------5------5/7--5/7---|
C|--12>---0--000000000000--10--00000--5--00--5/7--5/7---|
G|--12>---0--000000000000--8---00000--3--00--3/5--3/5---|
C|--12>---0--000000000000------00000-----00-------------|x2
             ............      .....     ..

VERSE (BOTH GUITARS)
D|--------------------------------------------|
A|--------------------------------------------|
F|----------------10---------5------5/7--5/7--|
C|--000000000000--10--00000--5--00--5/7--5/7--|
G|--000000000000--8---00000--3--00--3/5--3/5--|
C|--000000000000------00000-----00------------|x4
    ............      .....     ..

PRE-CHORUS (GUITAR ONE)
D|-----------------------------------------|
A|-----------------------------------------|
F|--5/7-5/7------5/7-5/7------5/7-5/7------|
C|--5/7-5/7--00--5/7-5/7--00--5/7-5/7--00--|
G|--3/5-3/5--00--3/5-3/5--00--3/5-3/5--00--|
C|-----------00-----------00-----------00--|

PRE-CHORUS (GUITAR TWO)
D|-----------------------------------------|
A|-----------------------------------------|
F|-----------------------------------------|
C|-----------00-----------00-----------00--|
G|-----------00-----------00-----------00--|
C|-----------00-----------00-----------00--|


CHORUS (GUITAR ONE)
D|----------------------------------------------------------|
A|----------------------------------------------------------|
F|----------------------------------------------------------|
C|--88888888--1010101010101010--88888888--1212121212121212--|
G|--88888888--1010101010101010--88888888--1212121212121212--|
C|--88888888--1010101010101010--88888888--1212121212121212--|

CHORUS (GUITAR TWO)
D|--------------------------------------------|
A|--------------------------------------------|
F|--------------------------------------------|
C|--88888888--1010101010101010--88888888--0>--|
G|--88888888--1010101010101010--88888888--0>--|
C|--88888888--1010101010101010--88888888--0>--|

VERSE

PRE-CHORUS

CHORUS

BRIDGE (BOTH GUITARS)
D|-----------------------------------------|
A|-----------------------------------------|
F|-----------------------------------------|
C|--0--00--00-----------00000000-----------|
G|--0--00--00--3h5p3/2--00000000--3h5p3/2--|
C|--0--00--00-----------00000000-----------|

BREAKDOWN (GUITAR ONE - PLAYED ONCE BEFORE GUITAR TWO COMES IN)
D|-----------------------------------------------------------|
A|-----------------------------------------------------------|
F|-----------------------------------------------------------|
C|-----------------------------------------------------------|
G|---8---7-------8-8-8h10p8/7/8----8---7---------------------|
C|-0---0---10-12-----------------0---0---10-12-10-10^--------|
   .   .                         .   .

BREAKDOWN (GUITAR TWO)
D|-------------------------------------------------------|
A|-------------------------------------------------------|
F|---10---9-------10-10-10h12p10/9/10---10---9-----------|
C|-0----0---10-12---------------------0----0---10-12-10--|
G|-------------------------------------------------------|
C|-------------------------------------------------------|

Oceń to opracowanie

Kontrybucje
nem

Współpraca

W wiki-śpiewniku Wywroty możesz poprawiać istniejące opracowania i zdobywać punkty karmy. Zapoznaj się z zasadami kontrybucji.
anonim