0
0

Father And Son Cat Stevens

Tekst piosenki i chwyty na gitarę

  • Chwyty na gitarę Średni Tonacja G
    12 ulubionych
[Intro]
e|-------------3-----5--|
B|0--0-0-1--------------|
G|0--0-0-0--5-----5-----|
D|0--0-0-2--------------| x3
A|----------------------|
E|----------------------|

[Zwrotka - Ojciec]
It's not Gtime to make a D/F#change, just reClax and take it a7 easy
You're still Gyoung, that's your e fault, there's so a much you have to Dknow
Find a Ggirl, settle D/F#down, if you Cwant, you can a7 marry
Look at Gme, I am e old, but I'm a happy  D 
I was Gonce like you are Dnow, and I Cknow that it's not a7 easy
To be Gcalm when you've e found something going a on    D 
But take your Gtime, think a Dlot, why think of Ceverything you've a7 got
For you will Gstill be here toe morrow, but your Ddreams may Gnot

e|-------------3-----5--|
B|0--0-0-1--------------|
G|0--0-0-0--5-----5-----|
D|0--0-0-2--------------| x2
A|----------------------|
E|----------------------|

[Zwrotka - Syn]
How can GI try to exb plain? 'cause when I Cdo he turns aa7 way again
It's Galways been the e same, same old a story  D 
From the Gmoment I could b talk I was Cordered to a7 listen
Now there's a Gway, and I e know that I Dhave to Ggo away
I Dknow I Chave to Ggo

e|-------------3-----5--|
B|0--0-0-1--------------|
G|0--0-0-0--5-----5-----|
D|0--0-0-2--------------| x2
A|----------------------|
E|----------------------|

[Przerwa]
G D C a7
G e a C D
G D C a7
G e D G
D C G

[Zwrotka - Ojciec]
It's not Gtime to make a Dchange, just sit Cdown and take it a7 slowly
You're still Gyoung, that's your e fault, there's so a much you have to go Dthrough
Find a Ggirl, settle Ddown, if you Cwant, you can a7 marry
Look at Gme, I am e old, but I'm a happy  D 

[Zwrotka - Syn]
All the Gtimes that I've b cried, keeping Call the things I a7 knew inside
It's Ghard, but it's e harder to ia gnore it D 
If they were Gright, I'd ab gree, but it's Cthem they know, not a7 me 
Now there's a Gway, and I e know that I Dhave to Ggo away
I Dknow I Chave to Ggo

Oceń to opracowanie
Ocena czytelników: Niczego sobie 2 głosy
Kontrybucje:
Antiverzo
Antiverzo
anonim