Popraw Opracowanie
Transponuj
0

Save me from myself Christina Aguilera

Tekst piosenki i chwyty na gitarę

  • Chwyty na gitarę damballa
    3 ulubione
(Riff1)
nc.         d a7  d    a7
It's not so easy   loving me
(riff2)
B7
It gets so complicated
         A7
All the things you gotta be
             d  a7
Everything's changing
               d  a7
But you're the truth
B7
I'm amazed by all your patience
A7
Everything I put you through

B7           A7
And when I'm about to fall
d7
Somehow you're always waiting
B7                     A7
Your open arms to catch me
B7          A7           d a7
You're gonna save me from myself
d   a7
From myself, yes

You're gonna save me from myself

(so on for the rest of the verses)

Riff 1:

e------1-------------------|
B------3---------2---------|
G----2---2-------0---------|
D--0------0----2---2-------|
A------------0-------0-----|
G--------------------------|

Riff 2:

e--------------------------|
B-----3---3--3--3------2-2-|
G-----1---1--1--1------0-0-|
D---3----------------2-----|
A-1-----1--1--1----0-------|
G--------------------------|

Oceń to opracowanie
Ocena czytelników: Dobry 1 głos

Kontrybucje
damballa

Wakacyjny Konkurs Śpiewnikowy

Pula nagród w konkursie ponad 10.000 zł!
Przysyłaj opracowania piosenek i zdobądź bony na zakupy w sklepie muzycznym.
Zapoznaj się z regulaminem konkursu.
anonim