Komentarze

Kamień z napisem LOVE Enej

  • Sebastian Witoszek
    W zwrotkach po a i F polecam dodać E ;)
    · Zgłoś · 2 lata temu
  • Kacper
    Noob
    Noob
    · Zgłoś · 4 lata temu
  • Kacper
    zwykły człowiek
    inna tonacja ale to i lepiej
    wszystko ok, a chwyty wręcz ogniskowe ;)
    · Zgłoś · 4 lata temu
  • Kacper
    Łukasz
    Nie podoba mi się
    · Zgłoś · 4 lata temu
  • Kacper
    Jasia
    Na 2 progu lepiej brzmi
    · Zgłoś · 4 lata temu
  • Kacper
    Witek
    nie trzeba dawać kapadastra wystarczy że zmienicie sobie tonację strzałeczką góra lub dół a chwyty same się zmienią - i można sobie wybrać co komu pasuje.
    Super pomysł z tą możliwością zmiany tonacji :)
    · Zgłoś · 4 lata temu
  • Kacper
    adi
    nie umiem zagrać f dur
    · Zgłoś · 5 lat temu
  • Kacper
    wer1o2nika
    niema napisanego co szukam
    · Zgłoś · 5 lat temu
  • Kacper
    jjj
    jjj
    · Zgłoś · 5 lat temu
  • Kacper
    yhhhhhhhhhhhh
    yhhhhhhhhhhhh
    · Zgłoś · 5 lat temu
  • Kacper
    Diana
    Cool
    Like ☺
    · Zgłoś · 5 lat temu
  • Kacper
    kinia
    lol
    · Zgłoś · 6 lat temu
  • Kacper
    KOma
    dobre chwyty, wszystko pasuje. Oceniacie negatywnie tylko dlatego, że nie umiecie grać :P
    · Zgłoś · 6 lat temu
  • Kacper
    lilka950
    takie jakie lubisz
    · Zgłoś · 7 lat temu
  • LadyPunk
    można grać dwa dół jeden góra, to takie najprostsze ,ale ja nie bardzo umiem wytłumaczyć sposób bicia ponieważ zmieniam je kilka razy w ciągu piosenki
    · Zgłoś · 7 lat temu
  • Kacper
    iza
    Jakie bicie
    · Zgłoś · 7 lat temu
  • Kacper
    delikat magda
    Jakie bicie na gitare
    · Zgłoś · 7 lat temu
  • Kacper
    Pi-Rat
    super akordy - wszystko pasuje, moze nie jest 100 oryginalna tonacja, ale brzmi dobrze i latwe do zagrania :) dzieki
    · Zgłoś · 7 lat temu
  • Kacper
    grzech
    mam taby gp70@wp.pl wklejałem tu ale sie rozwalały. kto chce pisać
    · Zgłoś · 7 lat temu
  • Kacper
    Grzech
    Kamień z napisem Love
    1)----------------------- -0-0-------|--0--------------0-------------------------
    2)------0-1-1-0-0-----1-3-----3-3-1-|----3-1-3-1-3---3-3--1-1-1—3-1-0--
    3)---2--------------2-------- -------|----------------------------------
    4)-2--------------------------------------|----------------------------------
    5)----------------------------------------|---------------------------------
    6)----------------------------------------|----------------------------------

    1)--------------------------------------------------------------------
    2)-1--0-0----------1--0-0-------1-0-0---------3--1-1------------------
    3)----------2-2-------------2-2----------2-2--------------22----------------
    4)---------------2----------------------------- 2----------------------------
    5)--------------------------------------------------------------------
    6)--------------------------------------------------------------------

    1) -------------------------------------|-0----------------------------------
    2) ----0-1-3-1-0---0-1-0--1-0-----|---3-1-0-1-0------------------------
    3) --2-------------------------2-------|-------------2-1-2------------------
    4) -------------------------------------|------------------------------------
    5) -------------------------------------|------------------------------------
    6) -------------------------------------|------------------------------------
    · Zgłoś · 7 lat temu