Popraw Opracowanie
Transponuj
0

Thirteen Autumns a Widow Cradle Of Filth

Tekst piosenki

  • Tekst piosenki Gepuś
Riff 1

x 1
-------------------------------------------------
-------------------------------------------------
-------------------------------------------------
-4-4-4-4-4-4-4-4-4-4-4-4-4-4-4-4-4-4-4-4-4-4-4-4-
-2-2-2-2-2-2-2-2-2-2-2-2-2-2-2-2-2-2-2-2-2-2-2-2-
-------------------------------------------------
1           2           3           4

-------------------------------------------------
-------------------------------------------------
-------------------------------------------------
-------------------------------------------------
-3-----------------------------------------------
-1-----------------------------------------------
 1           2           3           4

x 2
-------------------------------------------------
-------------------------------------------------
-------------------------------------------------
-4-4-4-4-4-4-4-4-4-4-4-4-4-4-4-4-4-4-4-4-4-4-4-4-
-2-2-2-2-2-2-2-2-2-2-2-2-2-2-2-2-2-2-2-2-2-2-2-2-
-------------------------------------------------
 1           2           3           4

-------------------------------------------------
-------------------------------------------------
-------------------------------------------------
-------------------------------------------------
-3-----------------------------------------------
-1-----------------------------------------------
 1           2           3           4

x 1
-------------------------------------
-------------------------------------
-------------------------------------
-4-4-4-4-4-4-4-4-4-4-4-4-4-4-4-4-4-4-
-2-2-2-2-2-2-2-2-2-2-2-2-2-2-2-2-2-2-
-------------------------------------
 1           2           3

Riff 2

x 4
-------------------------------------------------
-------------------------------------------------
-------------------------------------------------
-------------------------------------------------
-4-----------3-----------4-----------3-----------
-2-----------1-----------2-----------1-----------
 1           2           3           4

-------------------------------------------------
-------------------------------------------------
-------------------------------------------------
-------------------------------------------------
-8-8-8-8-8-8-8-8-8-8-8-8-8-8-8-8-8-8-8-8-8-8-8-8-
-6-6-6-6-6-6-6-6-6-6-6-6-6-6-6-6-6-6-6-6-6-6-6-6-
 1           2           3           4

Riff 3

x 2
-------------------------------------------------
-------------------------------------------------
-------------------------------------------------
-------------------------------------------------
-3-3-3-3-3-3-3-3-3-3-3-3-3-3-3-3-3-3-3-3-3-3-3-3-
-1-1-1-1-1-1-1-1-1-1-1-1-1-1-1-1-1-1-1-1-1-1-1-1-
 1           2           3           4

-------------------------------------------------
-------------------------------------------------
-------------------------------------------------
-4-4-4-4-4-4-4-4-4-4-4-4-4-4-4-4-4-4-4-4-4-4-4-4-
-2-2-2-2-2-2-2-2-2-2-2-2-2-2-2-2-2-2-2-2-2-2-2-2-
-------------------------------------------------
 1           2           3           4

x 2
-------------------------------------------------
-------------------------------------------------
-------------------------------------------------
-------------------------------------------------
-3-----------------------------------------------
-1-----------------------------------------------
 1           2           3           4

-------------------------------------------------
-------------------------------------------------
-------------------------------------------------
-4-4-4-4-4-4-4-4-4-4-4-4-4-4-4-4-4-4-4-4-4-4-4-4-
-2-2-2-2-2-2-2-2-2-2-2-2-2-2-2-2-2-2-2-2-2-2-2-2-
-------------------------------------------------
 1           2           3           4

** Riff 2 **

Riff 4

x 4
-------------------------------------------------
-------------------------------------------------
-------------------------------------5---7---7---
-5---5---5---7---8---8---8---8---8---------------
-------------------------------------------------
-------------------------------------------------

-------------------------------------------------
-------------------------------------------------
-----7---7---7---5---5-------7---7---7---5---5---
-5-----------------------5-----------------------
-------------------------------------------------
-------------------------------------------------

Riff 5

x 2
-------------------------------------------------
-------------------------------------------------
-------------------------------------------------
-------------------------------------------------
-5-5-5-5-5-5-5-5-3-3-1-1-------------------------
-------------------------5-5-5-5-5-5-5-5-5-5-5-5-
 1           2           3           4

-------------------------------------------------
-------------------------------------------------
-------------------------------------------------
-------------------------------------------------
-3-3-3-3-3-3-3-3-1-1-0-0-------------------------
-------------------------3-3-3-3-3-3-3-3-3-3-3-3-
 1           2           3           4

-------------------------------------------------
-------------------------------------------------
-------------------------------------------------
-------------------------------------------------
-7---7---7---7---8---7---7---7---7---7---8---7---
-5---5---5---5---6---5---5---5---5---5---6---5---
 1           2           3           4

-------------------------------------------------
-------------------------------------------------
-------------------------------------------------
-------------------------5---5---5---5---5---5---
-8---8---8---7---7---7---3---3---3---3---3---3---
-6---6---6---5---5---5---------------------------
 1           2           3           4

Riff 6

x 3
-------------------------------------------------
-------------------------------------------------
-10---9-------10-9-----10-9-10---9-10-9---10-9---
----------7--------7---------------------------7-
-------------------------------------------------
-------------------------------------------------

-----------------------------------------
-----------------------------------------
-9-7-9---7-9-7--9-7-----10-9-10---10---9-
--------------------7--------------------
-----------------------------------------
-----------------------------------------

** Riff 4 **
** Riff 5 **
** Riff 6 ** - 2 times only

Riff 7

x 4
-------------------------------------------
-------------------------------------------
-------------------------------------------
-7---x-x-x-7---x-x-x-----------------------
-5---x-x-x-5---x-x-x-7---x-x-x-7---x-x-x-5-
---------------------5---x-x-x-5---x-x-x-3-

---------------------------------
---------------------------------
---------------------------------
-------------------------------5-
-x-x-x-5---x-x-x-x-8---x-x-x-x-3-
-x-x-x-3---x-x-x-x-6---x-x-x-x---

Riff 8

x ?
-----------------------------------------
-----------------------------------------
-----------------------------------------
-----------------------------------------
-----------------------------------------
-0-2p0-0-3p0---0-2p0-0-3p0---0-2p0-0-3p0-

** Riff 7 **
** Riff 6 **

Riff 9
-------------------------------------------------
-------------------------------------------------
-3---5---7---5---7---5---3---2-------------------
-------------------------------------------------
-------------------------------------------------
-------------------------------------------------

-------------------------------------------------
-------------------------------------------------
-------------------------------------------------
-------------------------------------------------
-5---7---8---5---4-------------------------------
-3---5---6---3---2-------------------------------




Oceń to opracowanie

Kontrybucje
Gepuś

Wakacyjny Konkurs Śpiewnikowy

Pula nagród w konkursie ponad 10.000 zł!
Przysyłaj opracowania piosenek i zdobądź bony na zakupy w sklepie muzycznym.
Zapoznaj się z regulaminem konkursu.
anonim