Popraw Opracowanie
Transponuj
0

Brand new day Demi Lovato

INTRO:
e:----------0---------------3----------------2---------------0--------|
B:------3-------3-------3-------3--------3-------3-------0-------0----|
G:----2---2---2---2---2---2---2---2----2---2---2---2---2---2---2---0--| x 3
D:--0---------------0-------------------------------------------------|
A:-----------------------------------2---------------0----------------|
E:--------------------------------------------------------------------|
on 3rd time, for last part, hold the last note:
e:----------0------|
B:------0----------|
G:----2---2--------|
D:-----------------|
A:--0--------------|
E:-----------------|
riff 1:
e:--------------------|
B:--------------------|
G:--------------------| x 2
D:--------------------|
A:--5-5---------------|
E:------2-2-3-3-3333--|
"i'm gonna run..." "come along..." "let's make..." "before"
e:------------- e:-------- e:--------- e:--------|
B:------------- B:-------- B:--------- B:--------|
G:---4--------- G:-------- G:---4----- G:--------|
D:---4-x8------ D:--5----- D:---4-x8-- D:---7----|
A:---2--------- A:--5--x8- A:---2----- A:---7-x8-|
E:------------- E:--3----- E:--------- E:---5----|
CHORUS (strum):
"it's a brand new day.." "this time..." "it's a..."
e:---------------------------- e:-----------------------------|
B:---------------------------- B:-----------------------------|
G:----7----------------------- x 2 G:-----------7-----------------|
D:----7-x4-5----9----7-------- D:--5--------7-x8-----7--------|
A:----5----5-x4-9-x4-7-x4----- A:--5-x8-----5--------7-x16----|
E:---------3----7----5-------- E:--3-----------------5--------|
riff 1:
e:--------------------|
B:--------------------|
G:--------------------| x 2
D:--------------------|
A:--5-5---------------|
E:------2-2-3-3-3333--|
VERSE 2
either play:
e:----------------------------------------------------------------------|
B:----------------------------------------------------------------------|
G:----------------------------------------------------------------------| x 2
D:----------------------------------------------------------------------|
A:-5-5-5-5-5-5-5555------------------2-2-2-2-2-2-2222-0-0-0-0-0-0-0000--|
E:------------------3-3-3-3-3-3-3333------------------------------------|
or these chords (strum):
e:--------------------------------|
B:--------------------------------|
G:--7----------------4------------| x 2
D:--7--------5-------4--------7---|
A:--5--------5-------2--------7---|
E:-----------3----------------5---|
CHORUS (strum):
"it's a brand new day.." "this time..." "it's a..."
e:---------------------------- e:-----------------------------|
B:---------------------------- B:-----------------------------|
G:----7----------------------- x 2 G:-----------7-----------------|
D:----7-x4-5----9----7-------- D:--5--------7-x8-----7--------|
A:----5----5-x4-9-x4-7-x4----- A:--5-x8-----5--------7-x16----|
E:---------3----7----5-------- E:--3-----------------5--------|

BRIDGE:
e:--------------------------------------------------------|
B:--------------------------------------------------------|
G:---------------4----77-x-7--77-x-7----------------------|
D:--2------5-----4-x8-77-x-7--77-x-7---2------5-----7-----|
A:--2-x8---5-x8--2----55-x-5--55-x-5---2-x8---5-x8--7-x16-|
E:--0---2--3---------------------------0---2--3-----5-----|
CHORUS (strum once & hold):
"it's a brand new day.." "this time..." "it's a..."
e:---------------------------- e:-----------------------------|
B:---------------------------- B:-----------------------------|
G:----7----------------------- x 2 G:-----------7-----------------|
D:----7----5----9----7-------- D:--5--------7--------7--------|
A:----5----5----9----7-------- A:--5--------5--------7--------|
E:---------3----7----5-------- E:--3-----------------5--------|

Oceń to opracowanie

Kontrybucje
ewcia14062
Teledysk

Dodaj własne wykonanie

Umiesz zagrać tą piosenkę? Nagraj swoje wykonanie i pokaż innym użytkownikom jak grasz!
anonim