0

Pieśń XXIX Dom o zielonych progach

Tekst piosenki i chwyty na gitarę

  • Chwyty na gitarę natalia
    13 ulubionych
Całe życie w niebo idzie
Mój połoniński pochód
I buki srebrni jeźdźcy
Nad nimi wiosny sokół
I nadał tamtej połoniny wiatr
I chmur wiosennych grzywy
I na chorągwi wspomnień twarz
Z włosami wiejącymi

Jak ciała nasze w mrocznym rytmie
Wznosiły się góry opadały
Tak dzieje się gdy wiosna przyjdzie
Wypala miłość stare trawy

Całe życie w niebo idzie
Mój połoniński pochód
I buki srebrni jeźdźcy
Nad nimi wiosny sokół
Jak popiół rozwiały się grzechy
W ciszy ktoś zawilce zasiał
I tylko grzmią włosy przestrzeni
W wielkich oknach mego świata

Jak ciała nasze w mrocznym rytmie...

CHWYTY:
zw. D C G D
ref. D e G D

można zagrać to też na takich akordach:

D*
             I              II               III
        1  -------------------------------------
        2  ---------------------------------3--
        3  ----------------1-------------------
        4  -------------------------------------
        5  -------------------------------------
        6  -------------------------------------
Tak jakby D tylko bez 2 palca

C*

   I                   II                   III
1 ---------------------------------------------
2 ------------------------------------------3-
3 ---------------------------------------------
4 --------------------1-----------------------
5 ------------------------------------------2-
6 ---------------------------------------------

G*

I                 II                    III
1 ------------------------------------------
2 ---------------------------------------3-
3 ------------------------------------------
4 ------------------------------------------
5 ------------------1----------------------
6 ---------------------------------------2-

i znowu D*

Na refrenie normalnie czyli : D e G D

Oceń to opracowanie
Ocena czytelników: Doskonały 2 głosy
Kontrybucje:
natalia
natalia

Dodaj własne wykonanie

Umiesz zagrać tą piosenkę? Nagraj swoje wykonanie i pokaż innym użytkownikom jak grasz!
anonim