Wakacyjny Konkurs Śpiewnikowy
Wakacyjny Konkurs Śpiewnikowy
Popraw Opracowanie Usuń
Transponuj
0

Cała w trawie Dżem

Tekst piosenki i chwyty na gitarę

  • Chwyty na gitarę Malinowa...
    15 ulubionych
Intro 1.:
E--------------------------------------------------------
A--------------------------------------------------------
D------------------------------------------8--5--8--5--
G---------------10----7---5--7--5-----------------
B-8-10-11-10--8-----8-------------------------------
E---------------------------------------------------------

Intro 2.:
E------------------------------------------3
A------------------------------------3-0-3-5
D-----------------------3---2-3-2----------5
G-3-5-7-5---3-2-3--------------------3-0-3-3
B-----------------------3---1-3-1----------3
E-3-5-6-5---3-1-3--------------------------3

Jesteś cała w trawie    g B F g B F
Zielone myśli twe       g B F g B d
Są jak poszum wiatru    c Es B
We włosach Twych o jee...    c Es F
We włosach Twych    g B F g B C
Delikatnych, czystych tak    d F B c B F
Jak myśli me o Tobie    g B F

Wiesz, kiedyś zabłądziłem w snach
No bo szukałem tam Ciebie
Byłaś całkiem naga i niewinna
O nie...niewinna nie, nie...
Dlaczego kochamy się tylko w snach ?

Jesteś dla mnie tak daleka
Zimna tak jak sztylet z lodu
Dlatego ranisz mnie
Nie wiedząc o tym nie
Nie wiedząc, nie...
Jak mocno jak, jak mocno jak kocham Cię - Cię
Jak mocno kocham Cię...

Gm,A#,F,Dm,C,Cm
Oceń to opracowanie

Kontrybucje
Malinowa...
  • Teledysk

Wakacyjny Konkurs Śpiewnikowy

Pula nagród w konkursie ponad 10.000 zł!
Przysyłaj opracowania piosenek i zdobądź bony na zakupy w sklepie muzycznym.
Zapoznaj się z regulaminem konkursu.
anonim