Popraw Opracowanie
Transponuj
0

Chce Ci coś opowiedzieć Dżem

Tekst piosenki i chwyty na gitarę

	Intro
	Zwrotka
	Chcę Ci coś opowiedzieć     a7   G
	Ale brakuje słów                  Dsus4   C
	Żeby wyrazić                       a7   G
	to co czuję                           Dsus4   C
	Mógłbym to namalować       a7   G
	Lecz nie wymyślił nikt           Dsus4   C
	Kolorów które                     a7   G
	można użyć                          Dsus4   C
	Przejście
	Mmmm Mmmm Mmmm       a7   G   Dsus4   C   x2
	Zwrotka
	Napisać mógłbym wiersz       a7   G
	Lecz jak odnaleźć rym           Dsus4   C
	Który uwielbi imię twoje        a7   G   Dsus4   C
	Na zawsze z Tobą być           a7   G
	Śnić z Tobą twoje sny            Dsus4   C
	Jak mam Ci o tym opowiedzieć     a7   G   Dsus4   C
	Refren
	Kocham Cię już wiem     G   C   Dsus4
	Jedno słowo cichy szept     G   C   Dsus4
	Kocham Cię już wiem     G   C   Dsus4
	Jedno słowo a tyle mieści się     G   C   Dsus4
	Solo
	Refren
	Kocham Cię już wiem     G   C   Dsus4
	Jedno słowo a tyle mieści się     G   C   Dsus4
	Kocham Cię już wiem     G   C   Dsus4
	Jedno słowo cichy szep     G   C   Dsus4
	        a7         G     Dsus4     C
	1-|---0---|---3---|---3---|---0---|
	2-|---1---|---3---|---3---|---1---|
	3-|---0---|---0---|---2---|---0---|
	4-|---2---|---0---|---0---|---2---|
	5-|---0---|---2---|---0---|---3---|
	6-|---0---|---3---|---x---|---0---|
	Intro:
      a7                 G  G  Dsus4                  C   C
E-----0--------0---------3--3----3--------------------x---0------
H-----1---------1--------0--0----3------------3-------x---1------
G-----0----------0-------0--0----2---2-----2-----2----x---0------2x
D-----2----2------2--2---0--0----0------0-------------x---2------
A-----0------------------2--2----0--------------------3---3------
E-----0------------------3--3----0--------------------0---0------

Oceń to opracowanie
Ocena czytelników: Dobry 7 głosów

Kontrybucje
Kacper Kluka

Wakacyjny Konkurs Śpiewnikowy

Pula nagród w konkursie ponad 10.000 zł!
Przysyłaj opracowania piosenek i zdobądź bony na zakupy w sklepie muzycznym.
Zapoznaj się z regulaminem konkursu.
anonim
Znaleziono 3 komentarze.
  • Grzegorz Gołyś
    Grzegorz Gołyś 6 lat temu

    mógłby ktoś dać bicia do tej piosenki i jak się nie mylę nie ma tu sola , z góry dziękuję ;)

  • Marcin
    Marcin 8 lat temu

    jeśli chodzi o zwrotkę to troszkę mi tu a7 nie pasuje, zamiast tego dał bym zwykłe a i C7 zamiast C. ref jest ok

  • gitarowa
    gitarowa 8 lat temu

    Świetna piosenka :]