Wakacyjny Konkurs Śpiewnikowy
Wakacyjny Konkurs Śpiewnikowy
Popraw Opracowanie
Transponuj
0

Naiwne pytania - akustycznie Dżem

Tekst piosenki i chwyty na gitarę

  • Chwyty na gitarę bolek117
    30 ulubionych
Moje pierwsze opracowanie. Wersję tą opracowałem na podstawie "ściepek" z rożnych śpiewników, według mnie najbardziej oddaje oryginał piosenki (mam na myśli wersję z płyty "Dżem - The singles"). Miła dla ucha, stosunkowo łatwa do zagrania ;) Życzę miłego grania ;)

Wstęp:
     G                e               D                              x2
e----3--3-3-3-3-------0--0-0-0-0------2--2-2-0-2-3-2-0-2-------------------|
H----3--3-3-3-3-------0--0-0-0-0------3--3-3-3-3-3-3-3-3-------------------|
G----0--0-0-0-0-------0--0-0-0-0------2--2-2-2-2-2-2-2-2-------------------|
D----0--0-0-0-0-------2--2-2-2-2------0------------------------------------|
A----2--2-2-2-2-------2--2-2-2-2------0------------------------------------|
E----3--3-3-3-3-------0--0-0-0-0------0------------------------------------|

Zwrotki:
     e           e7    e               e7    e     a               a7    a
e----0--0-0------0-----0--0-0-0-----0-----0-----0--0-0------0-----0--0-0-0->
H----0--0-0------0-----0--0-0-0-----0-----0-----1--1-1------1-----1--1-1-1->
G----0--0-0------0-----0--0-0-0-----0-----0-----2--2-2------0-----2--2-2-2->
D----2--2-2------0-----2--2-2-2-----0-----2-----2--2-2------2-----2--2-2-2->
A----2--2-2------2-----2--2-2-2-----2-----2-----0--0-0------0-----0--0-0-0->
E----0--2-2------0-----0--0-0-0-----0-----0-----0--0-0------0-----0--0-0-0->
     a7    a
e----0-----0----|
H----1-----1----|
G----0-----2----|
D----2-----2----|
A----0-----0----|
E----0-----0----|

Końcówka zwrotek:
     e               e7    e             e7    e     a               a7    a      D
e----0--0-0------0-----0--0-0-0-----0-----0-----0--0-0------0-----0------2->
H----0--0-0------0-----0--0-0-0-----0-----0-----1--1-1------1-----1------3->
G----0--0-0------0-----0--0-0-0-----0-----0-----2--2-2------0-----2------2->
D----2--2-2------0-----2--2-2-2-----0-----2-----2--2-2------2-----2------0->
A----2--2-2------2-----2--2-2-2-----2-----2-----0--0-0------0-----0------0->
E----0--2-2------0-----0--0-0-0-----0-----0-----0--0-0------0-----0------0->


e----2-0-2-|
H----3-3-3-|
G----2-2-2-|
D----0-0-0-|
A----0-0-0-|
E----0-0-0-|

Refren:
     G                e               D
e----3--3-3-3-3-------0--0-0-0-0------2--2-2-0-2-3-2-0-2--------------------|
H----3--3-3-3-3-------0--0-0-0-0------3--3-3-3-3-3-3-3-3--------------------|
G----0--0-0-0-0-------0--0-0-0-0------2--2-2-2-2-2-2-2-2--------------------|
D----0--0-0-0-0-------2--2-2-2-2------0-------------------------------------|
A----2--2-2-2-2-------2--2-2-2-2------0-------------------------------------|
E----3--3-3-3-3-------0--0-0-0-0------0-------------------------------------|

I.
Kiedy byłem mały
Zawsze chciałem dojść na koniec świata
Kiedy byłem mały, pytałem gdzie
I czy w ogóle kończy się ten świat?
A kiedy byłem mały ooo...

Ref:
W życiu piękne są tylko chwile
W życiu piękne są tylko chwile, tak, tak

II.
Kiedy byłem mały
Pytałem co to życie?
Pytałem co to jest życie mamo?
Widzisz - życie to ja i Ty
Ten ptak, to drzewo i kwiat
Odpowiadała mi ooo...

Ref:
W życiu piękne są tylko chwile
W życiu piękne są tylko chwile, tak, tak

III.
Teraz jestem duży i wiem, że
W życiu piękne są tylko chwile
Dlatego czasem warto żyć
Dlatego czasem warto żyć, no bo....

Ref:
W życiu piękne są tylko chwile \ 4 x
Kiedyś, kiedyś byłem mały
Pytałem gdzie i czy, tak, tak
Kiedyś byłem taki mały...taki mały...mały...

G,Em,D,Em7,Am,Am7
Oceń to opracowanie
Ocena czytelników: Niczego sobie+ 3 głosy

Kontrybucje
bolek117
  • Teledysk

Wakacyjny Konkurs Śpiewnikowy

Pula nagród w konkursie ponad 10.000 zł!
Przysyłaj opracowania piosenek i zdobądź bony na zakupy w sklepie muzycznym.
Zapoznaj się z regulaminem konkursu.
anonim
Znaleziono 3 komentarze.