Popraw Opracowanie
Transponuj
0

Haunted Evanescence

Tuning: all guitars in Drop D - DADGBE

Intro (transcribed from synths) Guitar 1 play low D, Guitar 2 play top e
e|-0--7--6--3-2-0--8--7--3-2--------------------------------------------|
B|----------------------------------------------------------------------|
G|----------------------------------------------------------------------|
D|----------------------------------------------------------------------|
A|----------------------------------------------------------------------|
D|-2--9--8--5-4-2--10-9--5-4--------------------------------------------|

Verse 1 - No guitar. carry on synth

Chorus gtr 2 w/ distortion
e|----------------------------------------------------------------------|
B|----------------------------------------------------------------------|
G|----------------------------4-4-4-7----------9------------------------|
D|-2-2-2-xx-0-0-0-xx-2-2-2-xx-4-4-4-7-(repeat)-9------------------------|
A|-2-2-2-xx-0-0-0-xx-2-2-2-xx-2-2-2-5----------7------------------------|
D|-2-2-2-xx-0-0-0-xx-2-2-2-xx-------------------------------------------|

Chours gtr 1 (just heard. play each note as Amy sings it)
e|----------------------------------------------------------------------|
B|----------------------------------------------------------------------|
G|----------------------------------------------------------------------|
D|----------------------------------------------------------------------|
A|-10--9--9--9-4-4-10-9-10-9-7-9-7--10-9-9--9-7-7--10-9-10-9-7-7--------|
D|----------------------------------------------------------------------|

Verse 2: Both Guitars w/ distortion
e|----------------------------------------------------------------------|
B|----------------------------------------------------------------------|
G|----------------------------------------------------------------------|
D|-222-222-2-2---222-222-2-2---222-222-2-2---222-222-2-2----------------|
A|-222-222-2-2---222-222-2-2---333-333-3-3---333-333-3-3--(repeat)------|
D|-222-222-2-2---222-222-2-2---222-222-2-2---222-222-2-2----------------|

Chorus

Solo: Guitar 1
e|----------------------------------------------------------------------|
B|-5-5-5-5-5--7-5-4--4h5p4-4--------------------------------------------|
G|------------------------6-6p4h6-6^-4h6-6^-4h6-4h6p4-4h6^-4h6p4-4------|
D|---------------------------------------------------6----------7-------|
A|----------------------------------------------------------------------|
D|----------------------------------------------------------------------|

e|----------------------------------------------------------------------|
B|--------------------------------------------5p4--5p4--4h5p4--4h5p4----|
G|------------------------------4h6-4h6^-6-4-----6----6------6------6---|
D|-7p6p4-4----------------4h6h7-----------------------------------------|
A|------7-7p6h7p4--4h6h7------------------------------------------------|
D|----------------------------------------------------------------------|

e|----------------------------------------------------------------------|
B|-4h5p4-4h5p4-4h5p4h5/7-5-4-5-4--4h5p4-5-7-5-7/9h10p9-7-7h9p7-5-7-5----|
G|------6-----6---------------------------------------------------------|
D|----------------------------------------------------------------------|
A|----------------------------------------------------------------------|
D|----------------------------------------------------------------------|

Chorus

Ending (both guitars)
e|----------------------------------------------------------------------|
B|----------------------------------------------------------------------|
G|----------------------------------------------------------------------|
D|-22-22-2-2------------------------------------------------------------|
A|-22-22-2-2------------------------------------------------------------|
D|-22-22-2-2------------------------------------------------------------|

Oceń to opracowanie

Kontrybucje
damballa

Wakacyjny Konkurs Śpiewnikowy

Pula nagród w konkursie ponad 10.000 zł!
Przysyłaj opracowania piosenek i zdobądź bony na zakupy w sklepie muzycznym.
Zapoznaj się z regulaminem konkursu.
anonim