Popraw Opracowanie
Transponuj
0

My Last Breath (bass) Evanescence

Tekst piosenki

  • Tekst piosenki damballa
Tuning
Drop-C# ?
G
D
A
Cis

For those of you who are like me and like to play the guitar solos as well Here you go

G|---2h4p1--|         G|--------|
D|----------|   OR    D|--7h9p6-|                  h=Hammer on
A|----------|         A|--------|                  p=Pull off
C#|---------|         C#|-------|

FX 0:00
Intro/Chrous  0:10
     Into Verse (Follow Guitar)

G|---------------------------------------------|     G|----------|
D|---------------------------------------------|     D|----------|
A|---------------------------------------------|     A|----------|
C#|--5--5---5----01---1-1----1----03---333-333-|     C#|--3--5*--|

Verse 1

G|---------------------------|
D|---------------------------|
A|---------------------------|
C#|----5*-----5*-----5*------|

Bass Fill

G|--------------------9--------------------------------|
D|---4*--------------------7/8-------------------------|
A|-----------5--7-----9-------------5--7--9------------|
C#|----------------------------------------------------|

Verse 2                                                                               Bridge

G|--------------------------|         G|-----------------------------|
D|--------------------------|         D|-----------------------------|
A|--------------------------|         A|-----------------------------|
C#|----5----3-5---3--5------|         C#|---0000000000--3--1---0--1--|

Alernate Chrous (To play along with the lead Guitar)

G|-----------------------------------------------------|
D|------7h9p6------------------------------------------|
A|---------------9--9-----45-5--5--5-----47--7--7--7---|
C#|----------------------------------------------------|

Oceń to opracowanie

Kontrybucje
damballa

Wakacyjny Konkurs Śpiewnikowy

Pula nagród w konkursie ponad 10.000 zł!
Przysyłaj opracowania piosenek i zdobądź bony na zakupy w sklepie muzycznym.
Zapoznaj się z regulaminem konkursu.
anonim