Wakacyjny Konkurs Śpiewnikowy
Wakacyjny Konkurs Śpiewnikowy
Popraw Opracowanie
Transponuj
0

Z pamiętnika młodej zielarki HappySad

Tekst piosenki i chwyty na gitarę

  • Chwyty na gitarę Jakub Maciejewski
    23 ulubione
Wstęp
E--------------------------
B--------------------------
G--------------------------
D--------------------------
A--------------------------
E-----5--3--0--------------


Wstęp + Zwr.
E------------------------------------------------------1----------------------------
B-----1---1-0-----1---1-0---0---0------------------1------1-------------------------
G---2---2-------2---2------0---0---------------2---------------2--------------------
D-----------------------------------------------------------------------------------
A---0-----------0-------------------------------------------------------------------
E--------------------------0-----------------1--------------------------------------

Zwrotka
a e F

Próbuję otworzyć oczy,
Huk rozlepianych powiek wiruje mi w głowie
Powietrze
Jakieś takie cięższe,

Chłepcę je chłepcę
Powoli na zewnątrz i do środka
Chyba już pójdę
Tyłek przymarzł mi do schodka

Pierwsza myśl:
O Matko Boska
Druga myśl:
O ja idiotka!

Ref.
         a
I znowu zamieszanie na chacie
         e
I znowu zarzygane żółcią szmaty
        F
Znowu tępa próba żyletki
       a               e
Znowu wpierdol od taty  (x2)


Zwrotka
a e F

Już czwarta rano,
Jak ten czas dziwnie leci
Jeszcze się Ziemia trochę przekręci
I znowu zaświeci słońce

O jak mi niedobrze
Jeszcze w głowie słyszę głosy,
Rozczochrane myśli,
Odklejone paznokcie, połamane włosy

Chyba już pójdę,
A wcale mi się nie chce
Burdel w mej głowie
Jak w damskiej torebce

Ref.
         a
I znowu zamieszanie na chacie
         e
I znowu zarzygane żółcią szmaty
        F
Znowu tępa próba żyletki
       a               e
Znowu wpierdol od taty  (x2)
Ajajajaj

Solo
E--8--7-5----------5-----------------------12--10--7--8--8--7-5----------5----------
B---------8--6-8-6---6-5----------------------------------------8--6-8-6---6-5------
G-----------------------------7-5-4--5-7--------------------------------------------
D-----------------------------------------------------------------------------------
A-----------------------------------------------------------------------------------
E-----------------------------------------------------------------------------------

Podczas solo druga gitara gra
a e F

         a
I znowu zamieszanie na chacie
         e
I znowu zarzygane żółcią szmaty
        F
Znowu tępa próba żyletki
       a               e
Znowu wpierdol od taty  (x2)
Ajajajajjj
Am,Em,F
Oceń to opracowanie

Kontrybucje
Jakub Maciejewski
  • Teledysk

Wakacyjny Konkurs Śpiewnikowy

Pula nagród w konkursie ponad 10.000 zł!
Przysyłaj opracowania piosenek i zdobądź bony na zakupy w sklepie muzycznym.
Zapoznaj się z regulaminem konkursu.
anonim