Popraw Opracowanie
Transponuj
0

For You (Acoustic) HIM

Tekst piosenki

  • Tekst piosenki Wystarczy Mika
INTRO
   a              D?        a        C
e|---------------|-----0---------|-------------3-------|
B|---------1-----|-3-----3---1---|---------------1-----|
G|-----2-----2---|---2-----2---2-|---------0-------0---|
D|---2---2-----2-|---------------|-------2---2-------0-|
A|-0-------------|---------------|-0-2-3---------------|
E|---------------|---------------|---------------------|
   Dm             (1st)(2nd)Am7
e|---1-----0-----||-3-||-3-||
B|-----3-----3---||---||-1-||
G|-2-----2-----2-||---||-2-||
D|---------------||---||-2-||
A|---------------||---||---||
E|---------------||---||---||

INTRO 2
   e              A7        e        G
e|---------------|---------------|---------------------|
B|---------------|-----0---------|-------------3-------|
G|---------0-----|-2-----2---0---|---------------0-----|
D|-----2-----2---|---2-----2---2-|---------0-------0---|
A|---2---2-----2-|---------------|-------2---2-------0-|
E|-0-------------|---------------|-0-2-3---------------|
   Am             (1st)(2nd)Em7
e|---------------||---||---||
B|---1-----0-----||-3-||-3-||
G|-----2-----2---||---||-0-||
D|-2-----2-----2-||---||-2-||
A|---------------||---||-2-||
E|---------------||---||-0-||

zw.
e7  a    e7    D    C
e7  a    e7    D    C

ref.
 e7 G a e7
 e7 G a e7


 a                              Dsus4 DmD?  DmD?  (2nd)Em7
e|-5-------7-------8-------7-------3-3-3-1-0-0-1-0-0-|---|
B|---5---5---5---5---5---5---5---5-3-3-3-3-3-3-3-3-3-|-3-|
G|-----5-------5-------5-------5---0-0-0-2-2-2-2-2-2-|-0-|
D|---------------------------------------------------|-2-|
A|---------------------------------------------------|-2-|
E|---------------------------------------------------|-0-|

Oceń to opracowanie

Kontrybucje
Wystarczy  Mika
HIM

HIM

Wakacyjny Konkurs Śpiewnikowy

Pula nagród w konkursie ponad 10.000 zł!
Przysyłaj opracowania piosenek i zdobądź bony na zakupy w sklepie muzycznym.
Zapoznaj się z regulaminem konkursu.
anonim