0

Remember tomorrow Iron Maiden

Tekst piosenki

  • Tekst piosenki damballa
    1 ulubiony
REMEMBER TOMORROW

Verse:(Riff 1)

1.Unchain the colours                  before my eyes,

2.Tears for rememberance,              and tears for joy,

3.Unchain the colours                  before my eyes,

E----7-----7-----7-----7-----7------|--8-------8-------8----7-----7-----7----|
B------8-----8-----8-----8-----8----|----10------10------10---8-----8-----8--|
G--9-----9-----9-----9-----9-----9--|-------10------10----------9-----9------|
D-----------------------------------|----------------------------------------|
A-----------------------------------|----------------------------------------|
E-----------------------------------|----------------------------------------|



   Yesterday's sorrows,                tomorrow's white lies.

   Tears for somebody                  and this lonely boy.

   Yesterday's sorrows,                tomorrow's white lies.

E----7-----7-----7-----7-----7------|--8-------8-------8----7-----7-----7----|
B------8-----8-----8-----8-----8----|----10------10------10---8-----8-----8--|
G--9-----9-----9-----9-----9-----9--|-------10------10----------9-----9------|
D-----------------------------------|----------------------------------------|
A-----------------------------------|----------------------------------------|
E-----------------------------------|----------------------------------------|



   Scan the horizon,                   the clouds take me higher,

   Out in the madness,                 the all seeing eye,

   Scan the horizon,                   the clouds take me higher,

E----7-----7-----7-----7-----7------|--8-------8-------8----7-----7-----7----|
B------8-----8-----8-----8-----8----|----10------10------10---8-----8-----8--|
G--9-----9-----9-----9-----9-----9--|-------10------10----------9-----9------|
D-----------------------------------|----------------------------------------|
A-----------------------------------|----------------------------------------|
E-----------------------------------|----------------------------------------|



   I shall return                      from out of fire.

   Flickers above us,                  to light up the sky.

   I shall return                      from out of fire.

E----7-----7-----7-----7-----7------|--8-------8-------8----7-----7-----7----|
B------8-----8-----8-----8-----8----|----10------10------10---8-----8-----8--|
G--9-----9-----9-----9-----9-----9--|-------10------10----------9-----9------|
D-----------------------------------|----------------------------------------|
A-----------------------------------|----------------------------------------|
E-----------------------------------|----------------------------------------|



Riff 2:

E------------------------|---------------------------|
B------------------------|---------------------------|
G------------------------|---------------------------|
D-----------4---4--------|-----------5---5-----------|
A--2--------2---2--5--4--|--5--------3---3--3-2------|
E--0---0-0---------3--2--|--3---3-3-------------3-2--|


E------------------------|---------------------------|
B------------------------|---------------------------|
G------------------------|---------------------------|
D-----------4---4--------|-----------5---5-----------|
A--2--------2---2--5--4--|--5--------3---3--3-2------|
E--0---0-0---------3--2--|--3---3-3-------------3-2--|



E------------------------|---------------------------|
B------------------------|---------------------------|
G------------------------|---------------------------|
D-----------4--

Oceń to opracowanie
Ocena czytelników: Doskonały 2 głosy
Kontrybucje:
damballa
damballa

Dodaj własne wykonanie

Umiesz zagrać tą piosenkę? Nagraj swoje wykonanie i pokaż innym użytkownikom jak grasz!
anonim