0

Heartbeats Jose Gonzalez

-|-------------------------------------------------------------------------|-
-|----------------0-----------0----------------------0------------2--------|-
-|----0-------0-----------0--------0-----0-------0-----------0----0-----0--|-
-|------1h2--2--2---1h2--2--2--------------1h2--2--2---1h2--2--2-----------|-
-|-------------------------------2-----------------------------------2-----|-
-|--0----------------------------------0-----------------------------------|-


-|-------------------------------------------------------------------------|-
-|------------2------------------------------------------------------------|-
-|-------4----4----4--------4---4----------0---4---0----------0---4----0---|-
-|---------------------------------------2---2---2-----1h2--2---2----------|-
-|--4--4----4----4----3h4-4---2--------0----------------------------2------|-
-|----------------------------------4--------------------------------------|-



                        x2
-|-------------------------------------------------------|-----------------|-
-|-------------------------------------------------------|----0---0--------|-
-|----2---2---4---2-----------0---0---4---0--------------|-------------4---|-
-|------4---4---4----x4---------2---2---2----x4----------|------4----4---4-|-
-|--2-----------------------0----------------------------|--2--------------|-
-|-------------------------------------------------------|-----------------|-


-|--------------------------------2----------------------------------------|-
-|--------------------------------2---------------------------0-------2----|-
-|---------4----4----4-------4---------4--------4----4----4-------4-------0|-
-|-------------------------------------------------------------------------|-
-|--2--4-4----4---4------4-4----4----4------4-4----4----4---4---4---4---2--|-
-|-------------------------------------------------------------------------|-

Trzeba przestroić gitarę!

E   A    D    G   H   E
Dis Gis Cis Dis B  Dis

Oceń to opracowanie
Ocena czytelników: Doskonały 1 głos
Kontrybucje:
happyadas
happyadas

Dodaj własne wykonanie

Umiesz zagrać tą piosenkę? Nagraj swoje wykonanie i pokaż innym użytkownikom jak grasz!
anonim