Popraw Opracowanie
Transponuj
0

Czas zemsty KAT

Tekst piosenki i chwyty na gitarę

  • Chwyty na gitarę Gepcia
    5 ulubionych
RIFF A x3
    am   G   am   F    am  G  F  A
|------------------------------------|
|---1----0---1----0----1---0--0------|
|---2----0---2----1----2---0--1--2---|
|---2----0---2----3----2---0--3--2---|
|---0----2---0----3----0---2--3--0---|
|--------3--------1--------3--1------|
Z głębi ran...              ...Abadon

RIFF B 
|--5--------5--------------------------|
|----5---6----5---5--6--------6--------|
|------5--------5------5---7----5---7--|
|------------------------7--------7-7--|
|--------------------------------------|
|--------------------------------------|
I stanął smok...     ...dziecię jego raj

RIFF C x6
|----------|
|----------|
|----------|
|--7--7-7--|
|--7--7-7--|
|--5--5-5--|
     [...]

RIFF D
|------------------------|
|------------------------|
|--12\11--12\9--12-11-9--|
|--10\9---10\7--10-9--7--|
|--10\9---10\7--10-9--7--|
|------------------------|
Z głębi ran... i przemoc

RIFF B 

RIFF Bsus2 x4
|----------|
|----------|
|--7--7-7--|
|--7--7-7--|
|----------|
|----------|
     [...]

RIFF C x7

RIFF E             x4        x4        x4       x4
|----------|---------|---------|---------|--------|
|----------|---------|---------|---------|--------|
|----------|---------|---------|---------|-7---7--|
|-------10-|-7--7-7--|-8--7-7--|-10-7-7--|-7-7-7--|
|--7-10-8--|-5--5-5--|-5--5-5--|-5--5-5--|---5-5--|
|--5-8-----|---------|---------|---------|--------|
           ognisty diament spadł...   potomstwo jej

RIFF F
|---------------------------------------------|
|---------------------------------------------|
|---------------------------------------------|
|---------------------------------------------|
|-8--8-8-8--8-8--8-8-8----10--10-10-10--10-10-|
|-6--6-6-6--6-6--6-6-6----8---8--8--8---8--8--|
Zemstą płomień i bat      płomień i bat

SOLO 1
|---------------------------------------------------------10^^(12)-12p10\8h10-|
|---------------------------------------------10h13p10h13---------------------|
|-----------------------------------------------------------------------------|
|-12^(14)--10^(12)--9^(10)----9h10p9h10p9h10----------------------------------|
|--------------------------10-------------------------------------------------|
|-----------------------------------------------------------------------------|

|-10-8-7-7^^(8)----------------|
|---------------10-8-----------|
|--------------------9-7-------|
|------------------------10^^--|
|------------------------------|
|------------------------------|

RIFF E
RIFF F

RIFF G x4
|-------------------------------|-----------------------|
|-------------------------------|-----------------------|
|------------------4-5----------|------------------4-5--|
|-2--2-2-3-----5---4-5-----9\5--|-2--2-2-3-----5---4-5--|
|-2--2-2-3-----5---2-3-----9\5--|-2--2-2-3-----5---2-3--|
|-0--0-0-1-0-0-3-0-----0-0-7\3--|-0--0-0-1-0-0-3-0------|

RIFF H x4
|---------|
|---------|
|---------|
|-9--9-9--|
|-9--9-9--|
|-7--7-7--|
    [...]

RIFF I                               x2
|------------------------------------|---------|
|------------------------------------|---------|
|------------------------------------|---------|
|-2--9-7-7-7-5\7--2-2-2-2--9-7-7-5\7-|---------|
|-2--7-5-5-5-3\5--2-2-2-2--7-5-5-3\5-|-9-9-7-9-|
|-0---------------0-0-0-0------------|-7-7-5-7-|
Śmierć i płacz...                    ...rozpala miecz

RIFF I                               x2
|--------------------------------------|-------|
|--------------------------------------|-------|
|--------------------------------------|-------|
|-2--9-7-7-7-5\7--2-2-2-2--9-7-7-7-5\7-|-------|
|-2--7-5-5-5-3\5--2-2-2-2--7-5-5-5-3\5-|-10-9--|
|-0---------------0-0-0-0--------------|-8--7--|
Śmierć i płacz...                 ...kieruje miecz

                                     x2 I raz    II raz
|--------------------------------------|--------|-------|
|--------------------------------------|--------|-------|
|--------------------------------------|-12-11--|-------|
|-12-11-12-11-9--12-11--9-9-9-9--12-11-|-10-9---|-------|
|-10-9--10-9--7--10-9---7-7-7-7--10-9--|--------|-10-9--|
|--------------------------------------|--------|-8--7--|



Z głębi ran
W blasku hord
Idzie czarny król ...
- Abaddon
Nad nim krąg,
Siedmiu głów
Sprzęga czarci gniew
W płomień.
... i stanął smok
przed mającą rodzić niewiastą
Ażeby, skoro porodzi
Pożreć ją
Dziecię jego raj.
Z głębi ran
Z chaszczy i nor,
Zemsty nadszedł czas
I przemoc.
Śmierć za płacz,
Płacz za śmierć.
Śmierć za diabła krew
- przelaną.
... i porodziła tyrana
Z żelaznym berłem
Lecz porwał go Bóg
Spod zębów wyzwoliciela.
Wzniósł Abaddon stary miecz
Plunął w piach
- wojna psie!
... ognisty diament spadł
I lud w obawie ukląkł
Wraz z nim potomstwo Jej.
- zemstą płomień i bat!
Płomień i bat!
Czarna postać rozdaje śmierć
Śmierć i płacz.
Śmierć i płacz.
Czarne widmo rozpala miecz.
Śmierć i płacz.
Śmierć i płacz.
Czarne widmo rozpala miecz.
Śmierć i płacz.
Śmierć i płacz.
Czarne widmo kieruje miecz
W niebo.
Śmierć i płacz.
Śmierć i płacz.
Zemsta piekieł dopełnia się.

Oceń to opracowanie
Ocena czytelników: Słaby 2 głosy

Kontrybucje
Gepcia
KAT

KAT

Wakacyjny Konkurs Śpiewnikowy

Pula nagród w konkursie ponad 10.000 zł!
Przysyłaj opracowania piosenek i zdobądź bony na zakupy w sklepie muzycznym.
Zapoznaj się z regulaminem konkursu.
anonim
Znaleziono 1 komentarz.