Popraw Opracowanie
Transponuj
0

Cicha noc tab Kolędy

||-----0-------------|------0------------|--5----5-----2----2----|--3----3-----------|
||-3-----3---0------|--3-----3---0----|--------------------------|-----------2------|
||----------------0---|----------------0-|--------------------------|-----------0-----|
||--------------------|--------------------|--0----------0----------|--0-------------|
||--------------------|--------------------|------------------0------|-----------------|
||-3---------3-------|--3----------3----|--------------------------|-----------------|



||--0---0----3---2--0---|-------0---------------|
||--------------------------|--3-------3----0-----|
||--------------------------|---------------------0-|      (x2)
||--------------------------|-----------------------|
||--3----------------------|-----------------------|
||--------------------------|--3-------------3----|


||--5------5------8----5----2----3-----7|--3------------------------------|
||-------------------------------------------|------3---0---3---1------------|
||-----------------------------------0-------|--0-------------------2-----0--|
||--0--------------0------------------------|---------------0-------------0--|
||--------------------------------------------|---------------------------------|
||--------------------------------------------|---------------------------------| t

Oceń to opracowanie
Ocena czytelników: Słaby+ 24 głosy

Kontrybucje
Dżesika

Wakacyjny Konkurs Śpiewnikowy

Pula nagród w konkursie ponad 10.000 zł!
Przysyłaj opracowania piosenek i zdobądź bony na zakupy w sklepie muzycznym.
Zapoznaj się z regulaminem konkursu.
anonim
Znaleziono 2 komentarze.