0

Gdy Śliczna Panna Kolędy

Tekst piosenki i chwyty na gitarę

C           F     G          C
Gdy śliczna Panna Syna kołysała,
C            F    G              C
Z wielkim weselem tak Jemu śpiewała.
a     d    G                F  C
Li li li li laj, moje Dzieciąteczko, }
a     d          a       F      G C
Li li li li laj, śliczne Paniąteczko.}BIS

Wszystko stworzenie, śpiewaj Panu swemu,
Pomóż w radości wielkiej sercu memu.
Li li li li laj, wielki Królewiczu, }
Li li li li laj, niebieski Dziedzicu!}BIS

Sypcie się z nieba, liczni aniołowie,
Śpiewajcie Panu, Niebiescy duchowie
Li li li li laj mój wonny kwiateczku,}
Li li li li laj w ubogim żłóbeczku } BIS

Cicho wietrzyku, cicho południowy,
Cicho powiewaj, niech śpi Panicz nowy,
Li li li li laj, mój wdzięczny Synaczku,
Li li li li laj, miluchny Robaczku.


BICIE: V V ^ ^ V ^


Lub:

TAB:

e)-------3-3-5-8-7-5-5-3------
H)-3-5-7----------------------
G)----------------------------
D)----------------------------
A)----------------------------
E)----------------------------

e)-------3-3-5-8-7-5-5-3------
H)-3-5-7----------------------
G)----------------------------
D)----------------------------
A)----------------------------
E)----------------------------


e)-4-2-4-0-2----2-0------------
H)--------------------------------
G)--------------4-----4-2--------
D)----------------------------
A)----------------------------
E)----------------------------


e)-4-2-4-0-5-4-7-5-4-2-0-2--0-
H)-------------------------------
G)----------------------------
D)----------------------------
A)----------------------------
E)----------------------------






Oceń to opracowanie
Ocena czytelników: Niczego sobie 50 głosów

Dodaj własne wykonanie

Umiesz zagrać tą piosenkę? Nagraj swoje wykonanie i pokaż innym użytkownikom jak grasz!
anonim
  • jarcyk18
    jarcyk18 2 miesiące temu

    świetna solówka w tym filmiku. lata ćwiczeń

  • Anonimowy użytkownik
    ewa 2 lata temu

    Nie wiem kto wsadzil do refrenu "F" jak to w ogole nie pasuje refren caly czas z tych samych chwytow

  • Anonimowy użytkownik
    Maciollo1 3 lata temu

    niezbyt bo chwyty nie tak

  • Anonimowy użytkownik
    emilka xd 4 lata temu

    fajna i prosta :) ;)

  • Anonimowy użytkownik
    pik 4 lata temu

    Pierwszy refren nie trybi powinno być: e4e2e4e0e2 h4e2e0h4h2h0 druga część jest ok. Fajne opracowanie.

  • Anonimowy użytkownik
    emi(: 5 lat temu

    fajne(:

Usunięto 2 komentarze