0

Pójdźmy wszyscy do stajenki Kolędy

Tekst piosenki i chwyty na gitarę

     G
1.Pójdźmy wszyscy do stajenki,
do Jezusa i Panienki
a   D      G    e
Powitajmy, Maleńkiego
D        G     G7
I Maryję Matkę Jego.
a   D     G     e
Powitajmy Maleńkiego
D        C     G
I Maryję Matkę Jego.

2. Witaj, Jezu ukochany,
Od Patryjarchów czekany,
Od Proroków ogłoszony,
Od narodów upragniony.

3. Witaj, Dzieciąteczko w żłobie,
Wyznajemy Boga w Tobie
Coś się narodził tej nocy
Byś nas wyrwał z czarta mocy.

4. Witaj Jezu nam zjawiony:
Witaj dwakroć narodzony,
Raz z ojca przed wieków wiekiem,
A teraz z matki człowiekiem

5. Któż to słyszał takie dziwy?
Tyś człowiek i Bóg prawdziwy,
Ty łączysz w boskiej osobie
Dwie natury różne sobie

6. O, szczęśliwi pastuszkowie,
Któż radość waszą wypowie?
Czego ojcowie żądali,
Byście pierwsi oglądali.

7. O Jezu nasze kochanie,
Czemu nad niebios mieszkanie
Przekładasz nędzę, ubóstwo,
I wyniszczesz swoje Bóstwo?


Pójdźmy wszyscy do stajenki do Jezusa i Panienki

E1---------------3-7-3-------------3-7-3----------------
H2--3-5-3-5-3---------3-5-3-5-3-----------------------
G3----------------------------------------------------------
D4-----------------------------------------------------------
A5----------------------------------------------------------
E6----------------------------------------------------------

Powitajmy Maleńkiego  i    Maryję Matkę jego

E1--8-7-5-5--7-5-3-3-----------------3-5-7-7------------
H2----------------------------7-7-5-7----------------------
G3-----------------------------------------------------------
D4-----------------------------------------------------------
A5----------------------------------------------------------
E6----------------------------------------------------------


Powitajmy Maleńkiego  i  Maryję Matkę jego

E1--8-7-5-5--7-5-3-3--------------3--3-3-3-------------
H2------------------------ 7-7-5-7-----------------------
G3--------------------------------------------------------
D4--------------------------------------------------------
A5--------------------------------------------------------
E6--------------------------------------------------------

Oceń to opracowanie
Ocena czytelników: Dobry 58 głosów

Dodaj własne wykonanie

Umiesz zagrać tą piosenkę? Nagraj swoje wykonanie i pokaż innym użytkownikom jak grasz!
anonim
  • Anonimowy użytkownik
    Megan 5 lat temu

    jakie jest bicie???

  • Ola Niko Kabza
    Ola Niko Kabza 5 lat temu

    A bicie może ktoś podać ?

  • paula99
    paula99 6 lat temu

    fajna kolęda

  • oxa97
    oxa97 8 lat temu

    E1-----0----0----3-7-3----0-----0-----3-7-3----------------
    H2--3----3----3---------3-----3-----3-----------------------

    Powitajmy Maleńkiego i Maryję Matkę jego
    E1--8-7-5-5--7-5-3-3----2---2---0---2-------------3-5-7-7------------
    H2------------------------------------------------------------

    Powitajmy Maleńkiego i Maryję Matkę jego

    E1--8-7-5-5--7-5-3-3-2--2---0--2-------3--3-3-3--
    H2------------------------ -----------------------------------


    po co sobie już trudne życie komplikować? :)

  • Zecia
    Zecia 8 lat temu

    Dzięki,przydało się.

  • Alexa005
    Alexa005 10 lat temu

    i teraz jest dobrze

  • Alexa005
    Alexa005 10 lat temu

    nie powinno byc tam raczej 'witaj dzieciateczko w zlobie' w 3 zwrotce?

Usunięto 1 komentarz