Wakacyjny Konkurs Śpiewnikowy
Wakacyjny Konkurs Śpiewnikowy
Popraw Opracowanie Usuń
Transponuj
0

Pójdźmy wszyscy do stajenki Kolędy

Tekst piosenki i chwyty na gitarę

  • Chwyty na gitarę Levandi
    98 ulubionych

	     G
	1.Pójdźmy wszyscy do stajenki,
	     G
	do Jezusa i Panienki
	  a        D    G         e
	Powitajmy, Maleńkiego
	   a         D      G
	I Maryję Matkę jego.
	   a      D     G       e
	Powitajmy Maleńkiego
	  a     D  C       G
	I Maryję Matkę jego.

	2. Witaj, Jezu ukochany,
	Od Patryjarchów czekany,
	Od Proroków ogłoszony,
	Od narodów upragniony.

	3. Witaj, Dzieciąteczko w żłobie,
	Wyznajemy Boga w Tobie
	Coś się narodził tej nocy
	Byś nas wyrwał z czarta mocy.

	4. Witaj Jezu nam zjawiony:
	Witaj dwakroć narodzony,
	Raz z ojca przed wieków wiekiem,
	A teraz z matki człowiekiem

	5. Któż to słyszał takie dziwy?
	Tyś człowiek i Bóg prawdziwy,
	Ty łączysz w boskiej osobie
	Dwie natury różne sobie

	6. O, szczęśliwi pastuszkowie,
	Któż radość waszą wypowie?
	Czego ojcowie żądali,
	Byście pierwsi oglądali.

	7. O Jezu nasze kochanie,
	Czemu nad niebios mieszkanie
	Przekłądasz nędzę, ubóstwo,
	I wyniszczesz swoje Bóśtwo?


Pójdźmy wszyscy do stajenki do Jezusa i Panienki

E1---------------3-7-3-------------3-7-3----------------
H2--3-5-3-5-3---------3-5-3-5-3-----------------------
G3----------------------------------------------------------
D4-----------------------------------------------------------
A5----------------------------------------------------------
E6----------------------------------------------------------    Powitajmy Maleńkiego  i    Maryję Matkę jegoE1--8-7-5-5--7-5-3-3-----------------3-5-7-7------------
H2----------------------------7-7-5-7----------------------
G3-----------------------------------------------------------
D4-----------------------------------------------------------
A5----------------------------------------------------------
E6----------------------------------------------------------


Powitajmy Maleńkiego  i  Maryję Matkę jego

E1--8-7-5-5--7-5-3-3--------------3--3-3-3-------------
H2------------------------ 7-7-5-7-----------------------
G3--------------------------------------------------------
D4--------------------------------------------------------
A5--------------------------------------------------------
E6--------------------------------------------------------

G,Am,D,Em,C
Oceń to opracowanie
Ocena czytelników: Dobry 43 głosy

Kontrybucje
Levandi

Wakacyjny Konkurs Śpiewnikowy

Pula nagród w konkursie ponad 10.000 zł!
Przysyłaj opracowania piosenek i zdobądź bony na zakupy w sklepie muzycznym.
Zapoznaj się z regulaminem konkursu.
anonim
Znaleziono 7 komentarzy.
  • Anonimowy użytkownik
    Megan 4 lata temu

    jakie jest bicie???

  • Ola Niko Kabza
    Ola Niko Kabza 4 lata temu

    A bicie może ktoś podać ?

  • paula99
    paula99 5 lat temu

    fajna kolęda

  • oxa97
    oxa97 7 lat temu

    E1-----0----0----3-7-3----0-----0-----3-7-3----------------
    H2--3----3----3---------3-----3-----3-----------------------

    Powitajmy Maleńkiego i Maryję Matkę jego
    E1--8-7-5-5--7-5-3-3----2---2---0---2-------------3-5-7-7------------
    H2------------------------------------------------------------

    Powitajmy Maleńkiego i Maryję Matkę jego

    E1--8-7-5-5--7-5-3-3-2--2---0--2-------3--3-3-3--
    H2------------------------ -----------------------------------


    po co sobie już trudne życie komplikować? :)

  • Zecia
    Zecia 7 lat temu

    Dzięki,przydało się.

  • Alexa005
    Alexa005 9 lat temu

    i teraz jest dobrze

  • Alexa005
    Alexa005 9 lat temu

    nie powinno byc tam raczej 'witaj dzieciateczko w zlobie' w 3 zwrotce?

Usunięto 1 komentarz