Popraw Opracowanie
Transponuj
0

Dom wschodzącego słońca Kult

Tekst piosenki i chwyty na gitarę

  • Chwyty na gitarę Becia
    114 ulubionych
Intro:
E-----------0----------------------0-------------------------2--------------------0------------
B-------1------1---------------1-------1----------------3-------3------------1----1---------
G-----2----------2-----------0-----------0-----------2------------2-------2---------2------
D----------------------------------------------2-0----------------------------------------------
A---0---------------0-2-3--------------------------------------------0------------------------
E-------------------------------------------------------------------------------------------------

----------0-------------------0-------------------0--------------------0----------
--------1----1-----------0--------0----------1------1------------0-------0-----
-----2----------2------1------------1------2----------2--------1-----------1---
-------------------------------------------------------------------------------------
--0------------------2--------------------0---------------2-----------------------
-------------------------------------------------------------------------------------



PIERWSZA CZĘŚĆ PIOSENKI GRANA NA TABULATURACH:

E --------0--------------------0----------------------2-----------------0-----------
B ------1---1---------------1----1----------------3----3------------1---1--------
G ----2-------2-----------0--------0-----------2---------2-------2--------2------
D ----------------------------------------------0------------------------------------
A --0-------------------3-----------------------------------------0-------------------
E---------------------------------------------------------------------------------------


E -------0--------------------0------------------0--------------------0-------------
B -----1---1---------------1---1-------------0---0----------------0---0----------
G ---2-------2-----------0-------0---------1-------1------------1-------1--------
D--------------------------------------------------------------------------------------
A--0--------------------3----------------2----------------------2-------------------
E--------------------------------------------------------------------------------------

E --------0--------------------0----------------------2-----------------0-----------
B ------1---1---------------1----1----------------3----3------------1---1--------
G ----2-------2-----------0--------0-----------2---------2-------2--------2------
D ----------------------------------------------0------------------------------------
A --0-------------------3-----------------------------------------0-------------------
E---------------------------------------------------------------------------------------

E----------0-------------------0-------------------0--------------------0----------
B--------1----1-----------0--------0----------1------1------------0-------0-----
G-----2----------2------1------------1------2----------2--------1-----------1---
D-------------------------------------------------------------------------------------
A--0------------------2--------------------0---------------2-----------------------
E-------------------------------------------------------------------------------------




PÓŹNIEJ DRUGA SZYBSZA POŁOWA PIOSENKI GRANA NA CHWYTACH:


     a                  C          D            F
W ciemnej tej celi na zgniłym posłaniu
a              C        E
Młody gitfunfel kopyrta
a                   C                   D           F
Pikawa mu stawa w tem wolnym konaniu
     a              E        a             E
To młody gitfunfel kopyrta

Przy jego tem koju gitsiorka przycupła
Młodemu gitowi nawija:
Ty wrócisz do funfli, ty wrócisz do zgredki
Gdy tylko zakwitną nagietki
Nad ranem znaleźli młodego gitowca
Złożyli go w ciemnej mogile
A gity, jak stali, się wszystkie chlastali
To młody gitfunfel kopyrtnął
W ciemnej tej celi na zgniłym posłaniu
Młody gitfunfel kopyrta
Pikawa mu stawa w tem wolnym konaniu
To młody gitfunfel kopyrta
Przy jego tem koju gitsiorka przycupła
Młodemu gitowi nawija:
Ty wrócisz do funfli, ty wrócisz do zgredki
Gdy tylko zakwitną nagietki
Nad ranem znaleźli młodego gitowca
Złożyli go w ciemnej mogile
A gity, jak stali, się wszystkie chlastali
to młody gitfunfel kopyrtnął
A gity, jak stali, się wszystkie chlastali
To młody gitfunfel kopyrtnął
A gity, jak stali, się wszystkie chlastali
To młody gitfunfel kopyrtnął


Oceń to opracowanie
Ocena czytelników: Doskonały 2 głosy

Kontrybucje
Becia

Wakacyjny Konkurs Śpiewnikowy

Pula nagród w konkursie ponad 10.000 zł!
Przysyłaj opracowania piosenek i zdobądź bony na zakupy w sklepie muzycznym.
Zapoznaj się z regulaminem konkursu.
anonim
Znaleziono 4 komentarze.