Popraw Opracowanie
Transponuj
0

Królowa życia - solo Kult

Tekst piosenki

  • Tekst piosenki Fishka
    1 ulubiony
E ---5-7-8--------------5-7--10-8--8/7-----8/10-12-13-12-10-8-7--5---------
B -5--------8-6-5---8-------------------------------------------------------6-6----
G ----------------------------------------------------------------------------------
D -----------------------------------------------------------------------------------
A ------------------------------------------------------------------------------------
E---------------------------------------------------------------------------------------

E --8^-------5-5------19--15-15-15--19-15-15-15--17--17-----8-12-13-15------
B -----8-------------------------------------------------------------------------
G -------------------------------------------------------------------------------
D -----------------------------------------------------------------------------------
A ------------------------------------------------------------------------------------
E---------------------------------------------------------------------------------------

E ---13-12-10-8-7---------5-5----------------------5-7-8-7---5-7-5--7-8-7-----------
B --------------------8----------8-5-6-8-5-6-8-------------------------------------------
G -------------------------------------------------------------------------------
D -----------------------------------------------------------------------------------
A ------------------------------------------------------------------------------------
E---------------------------------------------------------------------------------------

E -----20-19-17-15-17-17------------------------------------------------------
B -------------------------------------------------------------------------------
G -------------------------------------------------------------------------------
D -----------------------------------------------------------------------------------
A ------------------------------------------------------------------------------------
E---------------------------------------------------------------------------------------



Oceń to opracowanie

Kontrybucje
Fishka

Wakacyjny Konkurs Śpiewnikowy

Pula nagród w konkursie ponad 10.000 zł!
Przysyłaj opracowania piosenek i zdobądź bony na zakupy w sklepie muzycznym.
Zapoznaj się z regulaminem konkursu.
anonim