Wakacyjny Konkurs Śpiewnikowy
Wakacyjny Konkurs Śpiewnikowy
Popraw Opracowanie
Transponuj
0

Bez satysfakcji Lady Pank

Tekst piosenki i chwyty na gitarę

  • Chwyty na gitarę krzysiek.b5
    12 ulubionych

Ledwo tylko odrosłem od ziemii		/A E D E/
Trochę wyżej niż metr
Już myślałem,że wszystko się spełni
Że zostanę kim chcę

Chciałem być wielką gwiazdą rocka
Sławną jak Rolling Stones
Widzieć ludzi tysiące wokół
Zasłuchanych w mój głos

   Przez życie przejść wyłącznie na scenie	/F G D/
   Przyznacie, że niewielkie mażenie

Do roboty nawet się zabrałem
I po latach dwóch
Prawie dobrze rozróżniałem
Co to mol, a co dur

   I mocno w to wieżyłem, że wszystko można mieć	/A E fis D/
   By życie bajką było wystarczy tylko chcieć

Jakoś zaraz potem po maturze
Ojciec przekonał mnie
Że się daje nawet żyć i w biurze
Byle niezły był szef

   I tylko raz na miesiąc po pierwszym
   Znów czuję, że no satysfaction

Ledwo tylko...

   I mocno w to...

Wstęp

-------------------------------------------------------------------------
-------------------------------------------------------------------------
-------------------------------------------------------------------------
-------------------------------------------------------------------------
----0--0--2--4--2------0--0--2--4--2--4----------------------------------
--0------------------0---------------------------------------------------

Zwrotka

-------------------------------------------------------------------------
-----------------------------------sl------------------------------------
--2--2---------------------------9-\-7-----------------------------------
--2--2--x---9--9--x---7--7-x--9--7-\-5-----------------------------------
--0--0--x---7--7--x---5--5-x--7------------------------------------------
-------------------------------------------------------------------------

Refren

--1--1------1---3--3-----3---7-------------------------------------------
--1-------------3--------------------------------------------------------
--2--2--2---2---4--4--4--4---7----7--6--4--2-----------------------------
--3--3--3---3---5--5--5--5---7-------------------------------------------
--3-----3-------5-----5--5---5------------------2-----0------------------
--1-------------3---------------------------------------2--0-------------

A,E,D,F,G,F#m
Oceń to opracowanie
Ocena czytelników: Doskonały 2 głosy

Kontrybucje
krzysiek.b5

Wakacyjny Konkurs Śpiewnikowy

Pula nagród w konkursie ponad 10.000 zł!
Przysyłaj opracowania piosenek i zdobądź bony na zakupy w sklepie muzycznym.
Zapoznaj się z regulaminem konkursu.
anonim
Znaleziono 2 komentarze.