Wakacyjny Konkurs Śpiewnikowy
Wakacyjny Konkurs Śpiewnikowy
Popraw Opracowanie
Transponuj
0

Na co komu dziś Lady Pank

Tekst piosenki i chwyty na gitarę

  • Chwyty na gitarę wotar10
    109 ulubionych
Wstęp:
    a                 G           C          F
---0--0--0--0-0-3----3-|-0--0--0--------|
---1--1--0--1-1-3----3-|-1--3--1--1--1-|
---2--2--2--2-2-0----0-|-0--0--0--2--0-|
---2--2--2--2-2-0----0-|-2--2--2--3--3-|
---0--0--0--0-0-2----2-|-3--3--3--3--3-|
-------------------3----3-|------------------|
    a                 G          C           F
---0--0--0--0-0-3----3-|-0--0--0--------|
---1--1--0--1-1-3----3-|-1--3--1--1----|
---2--2--2--2-2-0----0-|-0--0--0--2----|
---2--2--2--2-2-0----0-|-2--2--2--3----|
---0--0--0--0-0-2----2-|-3--3--3--3----|
-------------------3----3-|------------------|

Stała pod ścianą sącząc kakao  /F a F G
Kapela cięła walca na sześć
Spytałem skromnie: "czy pójdziesz do mnie ?"
Kiwnęła głową zgadzając się:

(wstęp)
Trzeba zawsze żyć biegnącą chwilą
Na co komu dziś wczorajszy dzień

Topiłem smutki w butelce wódki  /F a F G
Obok Japończyk do lustra pił
Pytam żółtego: "powiedz dlaczego
też jesteś smutny ?" On na to mi:

Ref.
Na co komu dziś wczorajsza miłość /a G C F
Na co komu dziś wczorajszy sen
Po co dalej pić to samo piwo
Kiedy czujesz, że uleciał gaz

Chciałem być sobą za wielką wodą  /F a F G
Na czekoladę poczułem chęć
Była namiętna, bardzo nieletnia
I dobrze znała refrenu sens

Ref.  /a G C F

Spotkałem narzeczoną /F G aFG (na ostatnim G zaczyna się wers)
Taką ze szkolnych lat
Próbowaliśmy mocno
by taniec naszych ciał
rozgrzała jakaś iskra

Ref. /a G C F



Am,G,C,F
Oceń to opracowanie
Ocena czytelników: Dobry 8 głosów

Kontrybucje
wotar10

Wakacyjny Konkurs Śpiewnikowy

Pula nagród w konkursie ponad 10.000 zł!
Przysyłaj opracowania piosenek i zdobądź bony na zakupy w sklepie muzycznym.
Zapoznaj się z regulaminem konkursu.
anonim