0

Liar Mumford and Sons

Tekst piosenki i chwyty na gitarę

  • Chwyty na gitarę yaro753
 Fmaj7(let ring) G C
E |------0-------------3----------0---0----0---------|
B |------1-------------0----------1---1----1---------|
G |------2-------------0----------0---0----0---------|
D |------3-------------0----------2---0p2--0p2-------|
A |------3-------------2----------3---3----3---------|
E |------x-------------3-----------------------------|
Fmaj7(let ring) G C
E |------0-------------3----------0---0----0---------|
B |------1-------------0----------1---1----1---------|
G |------0p2-----------0----------0---0----0---------|
D |------3-------------0----------2---0p2--0p2-------|
A |------3-------------2----------3---3----3---------|
E |------x-------------3-----------------------------|

F7+ G C
I know that things are broken
F7+ G C
And though there's too many words left unsaid
F7+ G a
You say you have spoken
F7+ G C
Like the coward I am, I hang my head
And you lay careless your head on my chest
And don't even look at me looking my best
And all these things I can't describe
You would rather I didn't try
F G a G C G C
But please don't cry, you liar
F G a G C G C
Oh please, don't cry, you liar
They told me love was a fortress
And I had never put it to the test
And all the while I relied on this honesty
Well in love we are but amateurs at best
But please don't cry, you liar
Oh please, don't cry, you liar
Oh please, don't cry, you liar
Oh please, don't cry, you liar
You're leaving for your last kiss
And who in this world could ask me to resist
Your hands cold as they find my neck
All this love that I've found I detest

Oceń to opracowanie
Kontrybucje:
yaro753
yaro753

Dodaj własne wykonanie

Umiesz zagrać tą piosenkę? Nagraj swoje wykonanie i pokaż innym użytkownikom jak grasz!
anonim