Popraw Opracowanie
Transponuj
0

Hyper Music Muse

Tekst piosenki

  • Tekst piosenki s314ryt
    1 ulubiony
Drop D tuning and here we go...


Intro
|----8---7-8-7-6-|----8---7-8-7-6-|----8---7-8-7-6-|----8-----------|
|----7---7-7-7-6-|----8---7-7-7-6-|----8---7-7-7-6-|----8-----------|
|----7-----------|----7-----------|----7-----------|----7---7-7-7-7-|
|----------------|----------------|----------------|----------------|
|-0--------------|-0--------------|-0--------------|-0--------------|
|-0--------------|-0--------------|-0--------------|-0--------------|



|----------------|----------------|----------------|----------------|
|----------------|----------------|----------------|----------------|
|----------------|----------------|----------------|----------------|
|----10------5-7-|----10----------|----10------5-7-|----10----------|
|-0--8---3-5-3-5-|-0--8---9-10-9-7|-0--8---3-5-3-5-|-0--8---9-10-9-7|
|-0------3-5-----|-0------9-10-9-7|-0------3-5-----|-0------9-10-9-7|



|----------------|----------------|----------------|----------------|
|----------------|----------------|----------------|----------------|
|----------------|----------------|----------------|----------------|
|----10------5-7-|----10----------|----10------5-7-|----10----------|
|-0--8---3-5-3-5-|-0--8---9-10-9-7|-0--8---3-5-3-5-|-0--8---9-10-9-7|
|-0------3-5-----|-0------9-10-9-7|-0------3-5-----|-0------9-10-9-7|



|10-10-10-10-10-10-10-10|10-10-10-10-10-10-10-10|
|10-10-10-10-10-10-10-10|10-10-10-10-10-10-10-10|
|10-10-10-10-10-10-10-10|10-10-10-10-10-10-10-10|
|-----------------------|-----------------------|
|-----------------------|-----------------------|
|-----------------------|-----------------------|


Verse part I (Play 5 times)
|10-10-10-10-10-10-10-10|8-8-8-8-8-8-8-8|7-7-7-7-7-7-7-7|
|10-10-10-10-10-10-10-10|8-8-8-8-8-8-8-8|8-8-8-8-8-8-8-8|
|10-10-10-10-10-10-10-10|9-9-9-9-9-9-9-9|7-7-7-7-7-7-7-7|
|-----------------------|---------------|---------------|
|-----------------------|---------------|---------------|
|-----------------------|---------------|---------------|


                  Part II
|-6-6-6-6-6-6-6-6|10-10-10-10-10-10-10-10|8-8-8-8-8-8-8-8|-7--------|
|-8-8-8-8-8-8-8-8|10-10-10-10-10-10-10-10|8-8-8-8-8-8-8-8|-8--------|
|-7-7-7-7-7-7-7-7|10-10-10-10-10-10-10-10|8-8-8-8-8-8-8-8|-7--------|
|----------------|-----------------------|---------------|----------|
|----------------|-----------------------|---------------|----------|
|----------------|-----------------------|---------------|----------|


mute - - - - - - |
|----------------|
|----------------|
|----------------|
|----------------|
|-3-3-3-3-3-3-3-3|
|-3-3-3-3-3-3-3-3|

Chorus: Repeat intro


Verse 2 (wait 4 bars)
|----------------|----------------|----------------|----------------|
|----------------|----------------|----------------|----------------|
|----------------|----------------|--------10-9--7-|-10-9--7--------|
|----------------|----------------|----------------|----------------|
|----------------|----------------|----------------|----------------|
|----------------|----------------|----------------|----------------|



|10------10------|-8-------8------|-7-------7------|-6-------6------|
|--10--10--10--10|---8---8---8---8|---8---8---8---8|---8---7---8---8|
|----10------10--|-----9-------9--|-----7-------7--|-----7-------7--|
|----------------|----------------|----------------|----------------|
|----------------|----------------|----------------|----------------|
|----------------|----------------|----------------|----------------|


                                                   mute - - - - - - |
|10------10------|-8-------8------|-7--------------|----------------|
|--10--10--10--10|---8---8---8---8|-8--------------|----------------|
|----10------10--|-----9-------9--|-7--------------|----------------|
|----------------|----------------|----------------|----------------|
|----------------|----------------|----------------|-3-3-3-3-3-3-3-3|
|----------------|----------------|----------------|-3-3-3-3-3-3-3-3|


Chorus 2
|----8---7-8-7-6-|----8---7-8-7-6-|----8---7-8-7-6-|----8-----------|
|----7---7-7-7-6-|----8---7-7-7-6-|----8---7-7-7-6-|----8-----------|
|----7-----------|----7-----------|----7-----------|----7-------7-7-|
|----------------|----------------|----------------|----------------|
|-0--------------|-0--------------|-0--------------|-0--------------|
|-0--------------|-0--------------|-0--------------|-0--------------|



|----------------|----------------|----------------|----------------|
|----------------|----------------|----------------|----------------|
|----------------|----------------|----------------|----------------|
|----10------5-7-|----10----------|----10------5-7-|----10----------|
|-0--8---3-5-3-5-|-0--8---9-10-9-7|-0--8---3-5-3-5-|-0--8---9-10-9-7|
|-0------3-5-----|-0------9-10-9-7|-0------3-5-----|-0------9-10-9-7|


|----------------|----------------|----------------|----------------|
|----------------|----------------|----------------|----------------|
|----------------|----------------|----------------|----------------|
|----10------5-7-|----10----------|----10------5-7-|----10----------|
|-0--8---3-5-3-5-|-0--8---9-10-9-7|-0--8---3-5-3-5-|-0--8---9-10-9-7|
|-0------3-5-----|-0------9-10-9-7|-0------3-5-----|-0------9-10-9-7|


Solo
|----8-----------|----8-----------|----8-----------|----8---7--(7)--|
|----7-----------|----7-----------|----7-----------|----7---8b9r8p6-|
|----7-----6-6-6-|----7-----6-6-6-|----7-----6-6-6-|----7----------7|
|----------------|----------------|----------------|----------------|
|-0--------------|-0--------------|-0--------------|-0--------------|
|-0--------------|-0--------------|-0--------------|-0--------------|



|----------------|----8---7--(7)--|----------------|----8-----------|
|-6--------------|----7---8b9r8p6-|-6-8------------|----7---9-8p6-3-|
|---7------------|----7----------7|----------------|----7-----------|
|------------5-7-|----------------|------------5-7-|----------------|
|--------3-5-3-5-|-0--------------|--------3-5-3-5-|-0--------------|
|--------3-5-----|-0--------------|--------3-5-----|-0--------------|



|----------------|----------------|----------------|----------------|
|-5b6-------6b5--|etc-------------|----------------|----------------|
|----------------|----------------|----------------|----------------|
|----------------|----------------|----------------|----------------|
|----------------|----------------|----------------|----------------|
|----------------|----------------|----------------|----------------|

Oceń to opracowanie

Kontrybucje
s314ryt

Wakacyjny Konkurs Śpiewnikowy

Pula nagród w konkursie ponad 10.000 zł!
Przysyłaj opracowania piosenek i zdobądź bony na zakupy w sklepie muzycznym.
Zapoznaj się z regulaminem konkursu.
anonim