0

when we stand together Nickelback

Tekst piosenki i chwyty na gitarę

  • Chwyty na gitarę Majaalja
    3 oceny
Chwyty:Bbm Fis Gis
One more depending on a prayer
And we all look away
People pretending everywhere
It's just another day

There's bullets flying through the air
And they still carry on
We watch it happen over there
And then just turn it off

[Hey, yeah, yeah, hey, yeah...]
We must stand together
[Hey, yeah, yeah, hey, yeah...]
There's no giving in
[Hey, yeah, yeah, hey, yeah...]
Hand in hand forever
[Hey, yeah, yeah, hey, yeah...]
That's when we all win
[Hey, yeah, yeah, hey, yeah...]
That's, that's, that's when we all win
That's, that's, that's when we all win

They tell us everything's alright
And we just go along
How can we fall asleep at night
When something's clearly wrong

When we could feed a starving world
With what we throw away
But all we serve are empty words
That always taste the same

[Hey, yeah, yeah, hey, yeah...]
We must stand together
[Hey, yeah, yeah, hey, yeah...]
There's no giving in
[Hey, yeah, yeah, hey, yeah...]
Hand in hand forever
[Hey, yeah, yeah, hey, yeah...]
That's when we all win
[Hey, yeah, yeah, hey, yeah...]
That's, that's, that's when we all win
[Hey, yeah, yeah, hey, yeah...]
That's, that's, that's when we all win

The right thing to guide us
Is right here inside us
No one can divide us
When the Light is nearly gone
But just like a heartbeat
The drumbeat carries on...

And the drumbeat carries on...

[Hey, yeah, yeah, hey, yeah...]
We must stand together
[Hey, yeah, yeah, hey, yeah...]
There's no giving in
[Hey, yeah, yeah, hey, yeah...]
Hand in hand forever
[Hey, yeah, yeah, hey, yeah...]
That's when we all win
[Hey, yeah, yeah, hey, yeah...]
That's, that's, that's when we all win
That's, that's, that's when we all win
Zwrotka
E------------------------------------------------------
B------------------------------------------------------
G-----------6--8--10--6--8-------------6---------        x2
D--6-6--8-------------------------6-6-6-----10--8
A-----------------------------------------------------
E-----------------------------------------------------
Refren
E-----------------------------------------------
B---6--------6-------------9-9---------11--
G-----6---------8-------8--------10---------                  x2
D--------6-------------------------------------
A-----------------------------------------------
E-----------------------------------------------

Oceń to opracowanie
Ocena czytelników: Niczego sobie 3 głosy
Kontrybucje:
Majaalja
Majaalja

Dodaj własne wykonanie

Umiesz zagrać tą piosenkę? Nagraj swoje wykonanie i pokaż innym użytkownikom jak grasz!
anonim