Popraw Opracowanie
Transponuj
0

A New Level Of Confiedence Pantera

Tekst piosenki

  • Tekst piosenki Punko
A NEW LEVEL OF CONFIDENCE
                        -------------------------

                                by Pantera




Intro (main riff)


----------------------------------------------------------------------------
----------------------------------------------------------------------------
--x-\-----------------------------------------------------------------------
--x-\-\---------------------------------------------------------------------
------\-------0-1-2---0-1-2-3----0-1-2-3-4---6-6-6-6------------------------
--------------0-1-2---0-1-2-3----0-1-2-3-4---6-6-6-6------------------------
-pick slide-


Repeat three times




Second Riff

----------------------------------------------------------------------------
----------------------------------------------------------------------------
----------------------------------------------------------------------------
----------------------------------------------------------------------------
-----------------------------6-6-6-6----------------------------------------
-0-1-2---0-1-2-3--0-1-2-3-4--6-6-6-6----------------------------------------

|-----HEAVY PALM MUTE------|




Repeat Second Riff three more times, but use LIGHT palm muting on third and
fourth times.




Third Riff

----------------------------------------------------------------------------
----------------------------------------------------------------------------
-------------------3--------------------------------------------------------
-------------------3--------------------------------------------------------
-------------------1-2------------------------------------------------------
-0-0-00-0-0-0-00-----0------------------------------------------------------

|---HEAVY P.M----|


Repeat two more times (for a total of three times)




Fifth Riff

----------------------------------------------------------------------------
----------------------------------------------------------------------------
----------------------------------------------------------------------------
----------------------------------------------------------------------------
----------------------------------------------------------------------------
-0-0-00-0-0-0-00---0-0-00-0-0-0-00---0-0-00-0-0-0-00---0-00-/-12-12-12------

 |----------------------P.M.--------------------------------|

                                                            |-trem. pick-|



Play the fifth riff once more to the verses, yet end with a chord progression
of E5, Bb5, F5 (instead of the "tremoloed" E note (12th fret).






Sixth Riff (Main Verses)


----------------------------------------------------------------------------
----------------------------------------------------------------------------
----------------------------------------------------------------------------
----------------------------------------------------------------------------
----------------------------------------------------------------------------
-1-1-11-1-1-1-11---1-1-11-1-1-1-11---1-1-11-1-1-1-11---1-11-/-13-13-13------

 |-------------P.M. (these are all ONEs)-------------------|
                                                           |-trem.pick-|





And on, and on, and on...



Notes:  The Sixth Riff uses F notes on the low E string.  Although
some of the notes appear to be 11's, they are actually 1's.  They need to be
close enough to show the double-pick speed Darrell is using.  Also, on the
tail end of both fifth and sixth riffs, Darrell uses tremolo picking on the
12th and 13th notes (respectively).



Oceń to opracowanie

Kontrybucje
Punko

Współpraca

W wiki-śpiewniku Wywroty możesz poprawiać istniejące opracowania i zdobywać punkty karmy. Zapoznaj się z zasadami kontrybucji.
anonim