Popraw Opracowanie
Transponuj
0

Faithful Pearl Jam

Tekst piosenki i chwyty na gitarę

  • Chwyty na gitarę -=art=-
Csus2 (x35533)
Ebsus2 (xx8866)
G6+9? (xx5755)
Esus2 (xx9977) <-- This chord is wrong I think, but it's late

Csus2           Dissus2  G6+9            Dissus2
/ / / / | / / / /     | / / / / | / / / /

Verse 1:
Plaque on the wall says that
No one's slept here.  It's rare to
Come across a bridge that has not
Been around or been stepped on

Verse 2 (with same chord progression)

Riff 1:
            B      G
E-----------6----6|3-
B-----------6----6|3-
G-----------7----7|4-
D-----------8----8|5-
A-3(4)3-----8----8|5-
E-------6-3-6----6|3-
   b r

Pre-chorus (w/ Riff 1)
And echoes - nobody hears -
It goes - it goes - it goes
And echoes - nobody hears -
It goes - it goes - it goes

Chord diagrams for chorus:
C (x35533)
G(I) (355433)
G(II) (x 10 12 12 12 10)
Eb (x68886)

Chorus (4x)
C  G(I)G(I) We're faithful
C  G(I)G(I)  G(II)G(II)
Eb (x68886) We all believe
G (355433) We all believe

Bridge:

            B               C     G(II)       (G (II))
E-----------1---|-----------3---|-10---------|---------
B-----------3---|-----------5---|-12---------|---------
G-----------3---|-----------5---|-12---------|---------
D-----------3---|-----------5---|-12---------|---------
A-3(4)3-1---1---|-3(4)3-1---3---|-10---------|---------
E---------3-----|---------3-----|------------|---------
   b r             b r

Pre-chorus
Chorus
Verse 3
Verse 4

All right, it's getting late, at this point I'm just doing chords, no
words.  I'll put my email address at the end of this, and if I get much
response, I'll make this tab more complete by adding words.

Oceń to opracowanie

Kontrybucje
-=art=-

Wakacyjny Konkurs Śpiewnikowy

Pula nagród w konkursie ponad 10.000 zł!
Przysyłaj opracowania piosenek i zdobądź bony na zakupy w sklepie muzycznym.
Zapoznaj się z regulaminem konkursu.
anonim