I'm Open Pearl Jam

Capo 1st Fret all Gtrs.


-|-----|--0-----0-----0-----0----0-2------|-----------------------------------
-|-----|----3-----3-----3-----3------3----|-----------------------------------
-|-----|------2-----2-----2------------2--|-----------------------------------
-|--0--|----------------------------------|-----------------------------------
-|--0--|----------------------------------|-----------------------------------
-|-----|----------------------------------|-----------------------------------
 Verse Stone  12x

-|----------------|-----------------------------------------------------------
-|--11vvv---------|-----------------------------------------------------------
-|----------------|-----------------------------------------------------------
-|----------------|-----------------------------------------------------------
-|----------------|-----------------------------------------------------------
-|----------------|-----------------------------------------------------------
   3rd Time Mike

-|--x--3-x-0-5-5-5-5--|-------|-----------------------------------------------
-|--x-----------------|-------|-----------------------------------------------
-|--------------------|---0---|-----------------------------------------------
-|--------------------|---0---|-----------------------------------------------
-|--------------------|---x---|-----------------------------------------------
-|--------------------|---3---|-----------------------------------------------
  Chorus Stone          Mike Strum

-|-----|--0-----0-----0-----0------0-2------|---------------------------------
-|-----|----3-----3-----3-----3--------3----|---------------------------------
-|-----|------2-----2-----2-----2--------2--|---------------------------------
-|--0--|------------------------------------|---------------------------------
-|--0--|------------------------------------|---------------------------------
-|-----|------------------------------------|---------------------------------
  Verse Stone

-|-----------------------------------|----------------------------------------
-|-----------------------------------|----------------------------------------
-|--x--2--2-2-2-2-2-2-2--2--2--2--2--|----------------------------------------
-|--x--0--0-0-0-0-0-0-0--0--0--0--0--|----------------------------------------
-|-----------------------------------|----------------------------------------
-|-----------------------------------|----------------------------------------
 Mike PM--------------|

Oceń to opracowanie
Kontrybucje:
-=art=-
-=art=-
anonim