Popraw Opracowanie
Transponuj
0

Wishlist) Pearl Jam

Tekst piosenki i chwyty na gitarę

  • Chwyty na gitarę -=art=-
Undoubtedly the simplest song on the record, but what do you expect?  Eddie
Vedder is more of a singer than a guitarist.

(Slight Palm Mute)
E----------------|---------------|---------------|----------------
B----------------|---------------|---------------|----------------
G----------------|---------------|---------------|----------------
D-2-2-0-0-2-2-0-0|2-2-0-0-2-2-0-0|3-3-3-3-3-3-3-3|2-2-0-0-2-2-0-0-
A-3-3-3-3-3-3-3-3|3-3-3-3-3-3-3-3|3-3-3-3-3-3-3-3|3-3-3-3-3-3-3-3-
E----------------|---------------|---------------|----------------

Second part: (I wish the everything...)

E----------------|---------------|---------------|----------------
B----------------|---------------|---------------|----------------
G----------------|---------------|---------------|----------------
D-7--------------|5--------------|7--------------|5---------------
A-3--------------|3--------------|3--------------|3---------------
E----------------|---------------|---------------|----------------

                                  G               F
E----------------|---------------|---------------|----------------
B----------------|---------------|---------------|----------------
G----------------|---------------|---------------|----------------
D-7--------------|5--------------|5--------------|3---------------
A-3--------------|3--------------|5--------------|3---------------
E----------------|---------------|3--------------|1---------------


Solo: (After "I wish I was the full moon shining off your Camaro's hood")
Stay on F, then:
G  F  C  C
G  F  C  C
G  F  F, back to verse

Oceń to opracowanie

Kontrybucje
-=art=-

Wakacyjny Konkurs Śpiewnikowy

Pula nagród w konkursie ponad 10.000 zł!
Przysyłaj opracowania piosenek i zdobądź bony na zakupy w sklepie muzycznym.
Zapoznaj się z regulaminem konkursu.
anonim