Wakacyjny Konkurs Śpiewnikowy
Wakacyjny Konkurs Śpiewnikowy
Popraw Opracowanie
Transponuj
0

Każdy oddech twój Perfect

Tekst piosenki i chwyty na gitarę

  • Chwyty na gitarę nezorek
    17 ulubionych
Ja gram akordy w ten sposób, nie 100% pewności czy "e" i "A" są dobrze napisane, jeśli coś jest nie tak, to proszę o poprawę. Sądzę ze "e" oraz "F" można grać normalnym biciem na 4/4

G
E1|-----------3--------------|
H2|-----3-------3---3------|
G3|---0--0-------0---------|
D4|--------------------------|
A5|--------------------------|
E6|-3-----------------------|

C
E1|----------------0---------|
H2|-------1--------1---1---|
G3|----0---0--------0------|
D4|--------------------------|
A5|---3---------------------|
E6|--------------------------|

e
 E1|---------------0--------|
H2|---------0-------0------|
G3|------0---0--------0---|
D4|---2---------------------|
A5|----------------------- --|
E6|--------------------------|

A
E1|-----------0-------------|
H2|------2------2---2------|
G3|----2--2------2---------|
D4|--2----------------------|
A5|--------------------------|
E6|--------------------------|

F
E1|--------------1----------|
H2|---------1-------1------|
G3|------2---2--------2---|
D4|---3---------------------|
A5|--------------------------|
E6|-------------------------|

_________________________________________________________________________

każdy oddech twój           G
każdy ciała ruch               e
każdy serca chłód            C
każdy krok twych stóp      D
ciągle widzę cię                G

każdy jeden dzień
każde słowo twe
każdą twoją grę
każdą noc jak sen
ciągle widzę cię

nie czujesz, że                 C
jesteś moja więc              G
serce pęka mi                  A
z każdym krokiem twym   D

każdy ciała gest
każde twoje "nie"
każdy pusty śmiech
każde kłamstwo też
ciągle widzę cię

odkąd tak, jakby nic odeszłaś stąd                       e F
zgubiłem się wśród samotnych świata stron        e
a wszystkie sny twoją twarz wciąż śnią                F
nieznośny lód w sercu ciepła chce twych rąk       e
i wciąż krzyczę: proszę, proszę wróć...                G

nie czujesz, że                 C
jesteś moja więc              G
serce pęka mi                  A
z każdym krokiem twym   D

każdy ciała gest
każde twoje "nie"
każdy pusty śmiech
każde kłamstwo też
ciągle widzę cię

każdy pusty śmiech    C
każde kłamstwo też     D
ciągle widzę cię           G

chórki:
każdy oddech twój
każdy ciała ruch
każdy serca chłód
każdy krok twych stóp
ciągle widzę cię

chórki:
każdy jeden dzień
każde słowo twe
każdą twoją grę
każdą noc jak sen
ciągle widzę cię

chórki:
każdy ciała gest
każde twoje "nie"
każdy pusty śmiech
każde kłamstwo też

każdy jeden dzień
każde słowo twe
każdą twoją grę
każdą noc jak sen


G,C,Em,A,F,D
Oceń to opracowanie
Ocena czytelników: Dobry 5 głosów

Kontrybucje
nezorek
  • Teledysk

Wakacyjny Konkurs Śpiewnikowy

Pula nagród w konkursie ponad 10.000 zł!
Przysyłaj opracowania piosenek i zdobądź bony na zakupy w sklepie muzycznym.
Zapoznaj się z regulaminem konkursu.
anonim