Popraw Opracowanie Usuń
Transponuj
0

Nie płacz Ewka Perfect

Chwyty na gitarę
Intro:

 ------0--- ---------- ------2--- ---------- ------0--- ----------
 ----2----- --2------- ----2----- --2------- ----0----- --0-------
 --2------- ----2----- --2------- ----2----- --1------- ----1-----
 2--------- ------2--- 4--------- ------2--- 2--------- ------2---
 ---------- ---------- ---------- ---------- ---------- ----------
 ---------- ---------- ---------- ---------- ---------- ----------

 ------0--- ----------
 ----0----- --0-------
 --1------- ----1-----
 2--------- ------2---
 ---------- ----------
 ---------- ----------

 C a
 G
 C a
 G
 C a
 G
 C a
 G
Ref.:
 d F
 C G a
 G F C
 G
 F
 C G a
 G F
 C
 ---------- ----------

C,Am,G,Dm,F
Oceń to opracowanie
Ocena czytelników: Niczego sobie 13 głosów

39 776 wyświetleń
Autor opracowania
Hobbit

Współpraca

W nowym śpiewniku możesz poprawiać istniejące opracowania i zdobywać punkty Karmy. Zapoznaj się z zasadami kontrybucji.
anonim
Znaleziono 2 komentarze.
  • Anonimowy użytkownik
    Seweryn 7 miesięcy temu

    Intro jak najbardziej ok. Niestety reszta w innej tonacji. Powinno byc A, Fis. E

  • Maćkowicz
    Maćkowicz 5 lat temu

    Napisałeś intro w A-dur a piosenke w C-dur ;)