0

Wish You Were Here Pink Floyd

Tekst piosenki i chwyty na gitarę

  • Chwyty na gitarę Mizgał
    35 ulubionych
 Intro:

e|------------3-3-3-3--------------3-3-3-3-|-------------3-3-3-3------------3-3-3-3------|
B|------------3-3-3-3--------------3-3-3-3-|-------------3-3-3-3------------3-3-3-3------|
G|------------0-0-0-0------0-------0-0-0-0-|-------------0-0-0-0-----0------0-0-0-0------|
D|------0-2---2-2-2-2----2---2-0---0-0-0-0-|--------0-2--2-2-2-2---2---2-0--0-0-0-0------|
A|--0h2------------------------------------|----0h2--------------------------------------|
E|3----------------------------------------|--3------------------------------------------|

e|-------------3-3-3-3-------------3-3--3-|-------------3-3-3-3----------3-3--3-----|
B|---------------3-3---------------3----3-|---------------3-3------------3----3-----|
G|---------------0-0---------------0----0-|---------------0-0------------0----0-----|
D|-------0-2-----2-2-----2-0-------0--0-0-|--------0-2----2-2----2-0-----0--0-0-----|
A|---0h2---------------------2-0----------|----0h2------------------2-0-------------|
E|-3--------------------------------------|--3--------------------------------------|

e|-------------3-3---3---3-3---3---33-3----------------------------------------------
B|-------------3-3---3---3-----3---33-3----------------------------------------------
G|-------------0-----0---0-----0---00-0----------------------------------------------
D|-------0-----0---------0-----0---00-0----------------------------------------------
A|---0h2-------2---2-----2-----2---22-2----------------------------------------------
E|-3-------3---3---3---3-3---3-3-3-33-3----------------------------------------------

Solo:

e|-----------------------------------|-------------3/5-3----------------------------|
B|------3--5----3--------------------|-------------3/5-3--3/5-5---3/5-5/3-0---------|
G|--2/4------h4----4p2p0-------------|--------------------2/4-4-0-2/4-4/2-0---------|
D|-----------------------0-----0-0---|----------------------------------------------|
A|-------------------------1/2-------|----------------------------------------------|
E|-----------------------------------|----------------------------------------------|

e|-------------------------------------------|--------------------------------------|
B|------3---5-----5-5/7---3------------3-----|-------3---5-----b5b---b5-3-----------|
G|--2/4---4-------------4---2---2b3--4---4b5--2-|---2/4---4------------------2--4b----2|
D|-------------------------------------------|--------------------------------------|
A|-------------------------------------------|--------------------------------------|
E|-------------------------------------------|--------------------------------------|



    G                      C
e|--3-3---3--3---3-3-------0---------------------------------------------------------
B|----3------3---3---------1--Poczatek pierwszej zwrotki-----------------------------
G|----0------0---0---------0---------------------------------------------------------
D|----0------0---0---------2---------------------------------------------------------
A|----2-2----2---2---2-----3---------------------------------------------------------
E|----3-3--3-3-3-3---3-----3---------------------------------------------------------
C                          D
 So, so you think you can tell

            a                     G
Heaven from hell, blue skies from pain?

                       D                      C
Can you tell a green field from a cold steel rail,

               a                          G
A smile from a veil? Do you think you can tell

                         C                      D
And did they get you to trade your heroes for ghosts?

               a                         G
Hot ashes for trees? Hot air for a cool breeze?

                  D                   C
Cold comfort for change? Did you exchange

                      a                        G
A walk on part in the war for a lead roll in a cage?

Zwrotka druga:
C                                 D
 How I wish, how I wish you were here.

                 a
Cause we're just two lost souls swimming in a fish bowl

G
 Year after year.

D                                              C
 Running over the same old ground but have we found

              a                  G
The same old fears? Wish you were here.


objaśnienia:b - bend, czyli podciągnięciex/x - slide, czyli ślizg z pierwszego ixa na drugi (x oznacza próg)p - pull, czyli płynne przechodzenie z wyższego progu na niższy


Mam nadzieję, że to pomoże zagrać tę świetną piosenkę.

Oceń to opracowanie
Ocena czytelników: Dobry 6 głosów

Dodaj własne wykonanie

Umiesz zagrać tą piosenkę? Nagraj swoje wykonanie i pokaż innym użytkownikom jak grasz!
anonim