Popraw Opracowanie
Transponuj
0

Ghetto P.O.D.

Tekst piosenki i chwyty na gitarę

Chords:

This isn't exactly how P.O.D. play it but it's
the right chords and works great

Muted: X
Not played: x
Bend Up: >
Bend Down: <
Finger vibro: ~

(Into + Verse) Em - Emsus4 - Csus2
(Chours) C - e

|--0--|--0--|--0--||--0--|
|--0--|--0--|--3--||--1--|
|--0--|--0--|--0--||--0--|
|--2--|--2--|--2--||--2--|
|--2--|--2--|--3--||--3--|
|--0--|--3--|--x--||--3--|
  e  esus4  Csus2     C


Intro
   e                      esus4                 Csus2
 ||-------------------------|--------------------|----------------------|------|
4||------------0------------|---------0----------|------------3---------|-3  ~~|
 ||---------0---------0-----|-------0-------0----|---------0-------0----|------|
 ||------2--------------2---|----2-------------2-|------2--------------2|------|
4||-------------------------|--------------------|---3------------------|------|
 ||----0--------------------|--3-----------------|----------------------|------|


   e                      esus4
 ||-------------------------|--------------------|-------------------------|
4||------------0------------|---------0----------|---3                       ~~~~~~-------------|
 ||---------0---------0-----|-------0-------0----|---0---------------------|
 ||------2--------------2---|----2-------------2-|---2---------------------|
4||-------------------------|--------------------|---3---------------------|
 ||----0--------------------|--3-----------------|-------------------------|


Verse 1

   e                      esus4                 Csus2
 ||-------------------------|--------------------|----------------------|------|
4||------------0------------|---------0----------|------------3---------|-3  ~~|
 ||---------0---------0-----|-------0-------0----|---------0-------0----|------|
 ||------2--------------2---|----2-------------2-|------2--------------2|------|
4||-------------------------|--------------------|---3------------------|------|
 ||----0--------------------|--3-----------------|----------------------|------|
       I            beleive                        That this world beleives in

   e                      esus4                 Csus2
 ||-------------------------|--------------------|----------------------|------|
4||------------0------------|---------0----------|------------3---------|-3  ~~|
 ||---------0---------0-----|-------0-------0----|---------0-------0----|------|
 ||------2--------------2---|----2-------------2-|------2--------------2|------|
4||-------------------------|--------------------|---3------------------|------|
 ||----0--------------------|--3-----------------|----------------------|------|

       Lo------------ve
   e                      esus4                 Csus2
 ||-------------------------|--------------------|----------------------|------|
4||------------0------------|---------0----------|------------3---------|-3  ~~|
 ||---------0---------0-----|-------0-------0----|---------0-------0----|------|
 ||------2--------------2---|----2-------------2-|------2--------------2|------|
4||-------------------------|--------------------|---3------------------|------|
 ||----0--------------------|--3-----------------|----------------------|------|
       I            beleive                        That this world beleives in

   e                      esus4                 Csus2
 ||-------------------------|--------------------|----------------------|------|
4||------------0------------|---------0----------|------------3---------|-3  ~~|
 ||---------0---------0-----|-------0-------0----|---------0-------0----|------|
 ||------2--------------2---|----2-------------2-|------2--------------2|------|
4||-------------------------|--------------------|---3------------------|------|
 ||----0--------------------|--3-----------------|----------------------|------|

       Lo------------ve                             Lo------------------ve

                   C
 ||--X-X---X-X---|-0---0-----------------------------------------------|
4||--X-X---X-X---|-1---1-----------------------------------------------|
 ||--X-X---X-X---|-0---0-----------------------------------------------|
 ||--X-X---X-X---|-2---2-----------------------------------------------|
4||--X-X---X-X---|-3---3-----------------------------------------------|
 ||--X-X---X-X---|-3-3-3-3-3-3-3-3-3-3-3-3-3-3-3-3-3-3-3-3-3-3-3-3-3-3-|
                 We might never really agree     On anything about the

             e
 ||--X-X---|-0---0------------------------------------------------------|
4||--X-X---|-0---0------------------------------------------------------|
 ||--X-X---|-0---0------------------------------------------------------|
 ||--X-X---|-2---2------------------------------------------------------|
4||--X-X---|-2---2------------------------------------------------------|
 ||--X-X---|-0-0-0-0-0-0-0-0-0-0-0-0-0-0-0-0-0-0-0-0-0-0-0-0-0-0-0-0-0--|
            lives we live Between you and me. So differently.


(same for)

We don't always see things the same
We should agree to disagree
If we meet at love we can work it out


Verse 2
(same as verse 1)

I believe you and I will overcome
I believe you and I believe in love


Chours 2
(same as Chours)

Whether you think I'm so confused
Or if you feel the way I do
So don't give in to this hate within


Ending Bridge
(Same as chorus but with more distortion)

Living in this world of pain
Don't let it bring you down
The world is a ghetto


Verse 1

Repeat into to end


Oceń to opracowanie

Kontrybucje
damballa

Wakacyjny Konkurs Śpiewnikowy

Pula nagród w konkursie ponad 10.000 zł!
Przysyłaj opracowania piosenek i zdobądź bony na zakupy w sklepie muzycznym.
Zapoznaj się z regulaminem konkursu.
anonim