0

Blitzkrieg Bop Ramones

Tekst piosenki i chwyty na gitarę

  • Chwyty na gitarę stefankmiot
    2 ulubione
Ramones - Blitzkrieg Bop
tabulaturka i chwyty by kmiot (stefankmiot@poczta.onet.pl)

[ ADE ADE ADE ADA  (2x) ]

A
Hey ho, let's go  (4x)

           A                       D E
   They're forming in straight line
           A                         D E
   They're going through a tight wind
       A                          D
   The kids are losing their minds
       E          A   D A
   The Blitzkrieg Bop

   They're piling in the back seat
   They're generating steam heat
   Pulsating to the back beat
   The Blitzkrieg Bop

      D
      Hey ho, let's go
      A                       D A
      Shoot'em in the back now
      D
      What they want, I don't know
              B                 D        E
      They're all reved up and ready to go.

   They're forming...
   They're piling...

      Hey ho, let's go...

   They're forming...
   They're piling...

Hey ho, let's go  (4x)

bass tab:

wstep:

[ ADE ADE ADE ADA  (2x) ]

Hey, Ho, Let's Go
Hey, Ho, Let's Go
Hey, Ho, Let's Go (bas gra dzwiek A w ciagu tego wersu)
(gitara zaczyna tutaj)
  Hey, Ho, Let's Go

G-----------------------------------------------------|
D-----------------------------------------------------|
A-----------------------------------------------------|
E-5--5--5--5--5--5--5--5--5--5--5--5--5--5--5--5-|

zwrotka (glowny riff):

G -------------------------------------------------|
D -------------------------------------------------|
A ---------------------------5--5--7--7--7--7----|
E -5---5--5--5--5--5--5--5-----------------------|         x3

G -----------------------------------------|
D -----------------------------------------|
A ---------5--5--5------------------------|
E -5--5--5----------5--5--5--5--5--5--5-|

refren:

G------------------------------------------------------------------------------------|
D------------------------------------------------------------------------------------|
A--5--5--5--5--5--5--5--5--5--5--5--5--5--5--5--5-------------5--5-------------|
E------------------------------------------------------5--5--5--5-------5--5--5--5-|

G---------------------------------------------------------------------------------------|
D---------------------------------------------------------------------------------------|
A--5--5--5--5--5--5--5--5--5--5--5--5--5--5--5--5--------------5--5--7--7--7--7--|
E-------------------------------------------------------7--7--7--7---------------------|

Oceń to opracowanie
Kontrybucje:
stefankmiot
stefankmiot

Dodaj własne wykonanie

Umiesz zagrać tą piosenkę? Nagraj swoje wykonanie i pokaż innym użytkownikom jak grasz!
anonim