Popraw Opracowanie
Transponuj
0

Breaking The Girl Red Hot Chili Peppers

Tekst piosenki

  • Tekst piosenki damballa
    1 ulubiony
ERSE 1:

 I                   am a man                         cut from      the
 rarely              do friends                       come and      then
 she                 was a girl                       soft          but
 we                  were the two                     our lives     re-

 ------------------------------------------------------------------------------
-2--2--2-------2--2--2--2--4--5--5-------5--5--5--5---7--7--7-------7--7--7---
-2--2--2-------2--2--2--2--4--5--5-------5--5--5--5---7--7--7-------7--7--7---
-2--2--2-------2--2--2--2--4--5--5-------5--5--5--5---7--7--7-------7--7--7---
-0--0--0--4p0--0--0--0--0--0--0--0--6p0--0--0--0--0---0--0--0--9p0--0--0--0---
------------------------------------------------------------------------------

know
go
estranged
arranged

-------9---9---9---9---9---9--------------------------------------------------
-7--9--10--10--10--10--10--10-------------------------------------------------
-7--9--9---9---9---9---9---9--------------------------------------------------
-7--9--11--11--11--11--11--11-------------------------------------------------
-0--0--0---0---0---0---0---0--------------------------------------------------
------------------------------------------------------------------------------

PRE-CHORUS:

   C         G        a
Feeling so good that day

   C         G         F
A feeling of love that day

Chorus:

Twisting and turning your feelings are burning your

------------------------------------------------------------------------------
------------------------------------------------------------------------------
-5--5--5--5--7--7--7--7--9--9--9--9--12--12--12--12---------------------------
-5--5--5--5--6--6--6--6--7--7--7--7---9---9---9---9---------------------------
-x--x--x--x--x--x--x--x--x--x--x--x---x---x---x---x---------------------------
-5--5--5--5--7--7--7--7--8--8--8--8--10--10--10--10---------------------------


breaking the girl

-10--10--10--10--10--10--10--10--10--10--10--10--10--10--10--10--10--10--10---
--9---9---9---9---9---9---9---9---9---9---9---9---9---9---9---9---9---9---9---
--9---9---9---9---9---9---9---9---9---9---9---9---9---9---9---9---9---9---9---
--9---9---9---9---9---9---9---9---9---9---9---9---9---9---9---9---9---9---9---
--7---7---7---7---7---7---7---7---7---7---7---7---7---7---7---7---7---7---7---
--0---0---0---0---0---0---0---0---0---0---0---0---0---0---0---0---0---0---0---

She          meant       you         no

------------------------------------------------------------------------------
------------------------------------------------------------------------------
-5--5--5--5--7--7--7--7--9--9--9--9--12--12--12--12---------------------------
-5--5--5--5--6--6--6--6--7--7--7--7---9---9---9---9---------------------------
-x--x--x--x--x--x--x--x--x--x--x--x---x---x---x---x---------------------------
-5--5--5--5--7--7--7--7--8--8--8--8--10--10--10--10---------------------------

harm

-8---8---8---8---8---8---8---8---8---8---8---8---8---8---8---8---8---8--------
-10--10--10--10--10--10--10--10--10--10--10--10--10--10--10--10--10--10-------
-8---8---8---8---8---8---8---8---8---8---8---8---8---8---8---8---8---8--------
-10--10--10--10--10--10--10--10--10--10--10--10--10--10--10--10--10--10-------
-8---8---8---8---8---8---8---8---8---8---8---8---8---8---8---8---8---8--------
-x---x---x---x---x---x---x---x---x---x---x---x---x---x---x---x---x---x--------


Think your   so clever but now you must sever your

------------------------------------------------------------------------------
------------------------------------------------------------------------------
-5--5--5--5--7--7--7--7--9--9--9--9--12--12--12--12---------------------------
-5--5--5--5--6--6--6--6--7--7--7--7---9---9---9---9---------------------------
-x--x--x--x--x--x--x--x--x--x--x--x---x---x---x---x---------------------------
-5--5--5--5--7--7--7--7--8--8--8--8--10--10--10--10---------------------------

breaking the girl...

-10--10--10--10--10--10--10--10--10--10--10--10--10--10--10--10--10--10--10---
--9---9---9---9---9---9---9---9---9---9---9---9---9---9---9---9---9---9---9---
--9---9---9---9---9---9---9---9---9---9---9---9---9---9---9---9---9---9---9---
--9---9---9---9---9---9---9---9---9---9---9---9---9---9---9---9---9---9---9---
--7---7---7---7---7---7---7---7---7---7---7---7---7---7---7---7---7---7---7---
--0---0---0---0---0---0---0---0---0---0---0---0---0---0---0---0---0---0---0---

He          loves        no          one

------------------------------------------------------------------------------
------------------------------------------------------------------------------
-5--5--5--5--7--7--7--7--9--9--9--9--12--12--12--12---------------------------
-5--5--5--5--6--6--6--6--7--7--7--7---9---9---9---9---------------------------
-x--x--x--x--x--x--x--x--x--x--x--x---x---x---x---x---------------------------
-5--5--5--5--7--7--7--7--8--8--8--8--10--10--10--10---------------------------

else

-8---8---8---8---8---8---8---8---8---8---8---8---8---8---8---8---8---8--------
-10--10--10--10--10--10--10--10--10--10--10--10--10--10--10--10--10--10-------
-8---8---8---8---8---8---8---8---8---8---8---8---8---8---8---8---8---8--------
-10--10--10--10--10--10--10--10--10--10--10--10--10--10--10--10--10--10-------
-8---8---8---8---8---8---8---8---8---8---8---8---8---8---8---8---8---8--------
-x---x---x---x---x---x---x---x---x---x---x---x---x---x---x---x---x---x--------

VERSE 2:

Raised by my dad
Girl of the day
He was my man
That was the way
She was the girl
Left alone
Feeling the need
To make me her home

PRE-CHORUS 2:

   C         G             a
I don't know what, when or why

 C               G          F
The twilight of love had arrived

Repeat Chorus with this fill at the end, right before the "pots and pans" break:

------------------------------------------------------------------------------
-6--6--6--6--5--5--5--5-------------------------------------------------------
-8--8--8--8--7--7--7--7-------------------------------------------------------
-7--7--7--7--6--6--6--6-------------------------------------------------------
-8--8--8--8--7--7--7--7-------------------------------------------------------
------------------------------------------------------------------------------

"Pots and pans" break: (repeat many times, I'm too lazy to count)
------------------------------------------------------------------------------
-1--x--x--x--x--5--x--x--x--x--1--x--x--x--x--13-13-13------------------------
-2--x--x--x--x--5--x--x--x--x--2--x--x--x--x--10-10-10------------------------
-2--x--x--x--x--5--x--x--x--x--2--x--x--x--x--10-10-10------------------------
-0--x--x--x--x--3--x--x--x--x--0--x--x--x--x--10-10-10------------------------
------------------------------------------------------------------------------

Outro is the same as the Chorus with this fill played over top, fading out:

-12-----12------12------12----------------------------------------------------
-13-13--13--13--13--13--13--13---12---13---12---13---12---13---12---13--------
----14------14------14------14---13---14---13---14---13---14---13---14--------
------------------------------------------------------------------------------
------------------------------------------------------------------------------
------------------------------------------------------------------------------

Oceń to opracowanie

Kontrybucje
damballa

Wakacyjny Konkurs Śpiewnikowy

Pula nagród w konkursie ponad 10.000 zł!
Przysyłaj opracowania piosenek i zdobądź bony na zakupy w sklepie muzycznym.
Zapoznaj się z regulaminem konkursu.
anonim