Popraw Opracowanie
Transponuj
0

Can't Stop (bass) Red Hot Chili Peppers

Tekst piosenki

  • Tekst piosenki damballa
    1 ulubiony
N=Normal
S=Slap
P=Pop

Intro
G-----------------------|
D-----------------------|
A-----------------------|
E--777777777777777777777
   N....................


Verse
Repeat x
G-----7-9-------7-9---------7-9-------7-9------|
D----------------------------------------------|
A-7-7-----7-7-7-----7-7-7-5-----5-5-5----------|
E----------------------------------------------|
  S S P P S S S P P S S S S P P S S S P P

G---------4-4-------4-4---------5-5-------5-5--|
D----------------------------------------------|
A-5-5-5-2-----2-2-2-----2-2-2-3-----3-3-3------|
E----------------------------------------------|
  S S S S P P S S S P P S S S S P P S S S P P

Chorus
G---------------------------------------------------------9-7----|
D----7-9-10-12--9-9-7-9-10--12-----7-9-10-12--9--9-7-9-10-----9--|
A-10----------------------------10-------------------------------|
E----------------------------------------------------------------|
  N..............................................................

G----------------12-------------------------|
D----7-9-10-12-9----9-10-10-12----7-9-10-12-|
A-10---------------------------10-----------|
E-------------------------------------------|
  N.........................................

Pre Solo
G-----9-----14-------------------7-------|
D--------------12-0-------9--------10----|
A-7-7---7--------------------------------|
E---------------------7-7---7---------8--|
  N......................................

G-----9-----14-------------------7----------------|
D--------------12-0-0------9-------10---10--------|
A-7-7---7-----------------------------------------|
E----------------------7-7---7--------8----8--10--|
  N...............................................

G-----9-----14-------------------7----------------|
D--------------12-0-0------9-------10----5h7------|
A-7-7---7------------------------------------5h7--|
E----------------------7-7---7--------8-----------|
  N...............................................

G-----9-----14--------------------7---------------|
D--------------12-0-0------9--------10------------|
A-7-7---7-----------------------------------------|
E----------------------7-7---7---------8-8--------|
  N...............................................


Solo
It's the same thing as the Verse. The rest of the song is just the verse repeated. It's
of the peppers easier songs, so good luck!

Oceń to opracowanie

Kontrybucje
damballa

Współpraca

W wiki-śpiewniku Wywroty możesz poprawiać istniejące opracowania i zdobywać punkty karmy. Zapoznaj się z zasadami kontrybucji.
anonim