Popraw Opracowanie
Transponuj
0

Fortune Faded (bass) Red Hot Chili Peppers

Tekst piosenki

  • Tekst piosenki damballa
    1 ulubiony
Introduccion

G|--------------------------------------------------------------|
D|---------11-11-11-11-16-16-16-16------------------------------|
A|--------------------------------------------------------------|
E|22222222------------------------------------------------------|


Verso/solo
G|--------------------------------------------------------------|
D|--------------------------------------------------------------|
A|--------------------------------------------------------------|
E|77-xxx-77-xxx-77-xxx-77-xxx-10x10x10-10-10-x10-5555-55-5-3333-|


coro
G|------------------------------------------------------------------|
D|------------------------------------------------------------------|
A|-----7----------------------5-75-------7--------------------------|
E|5-55---5-3-33-3567-77-7-2-5-----7-5-55---5-3-33-3567-77—-777-777--|


Ultimo coro
G|--------------------------------------------------------------|
D|--------------------------------------------------------------|
A|-----7--------------------------------------------------------|
E|5-55---5-3-33-3567-77--777------------------------------------|

Oceń to opracowanie

Kontrybucje
damballa

Wakacyjny Konkurs Śpiewnikowy

Pula nagród w konkursie ponad 10.000 zł!
Przysyłaj opracowania piosenek i zdobądź bony na zakupy w sklepie muzycznym.
Zapoznaj się z regulaminem konkursu.
anonim