Popraw Opracowanie
Transponuj
0

Zephyr Song!!! Red Hot Chili Peppers

Tekst piosenki i chwyty na gitarę

  • Chwyty na gitarę nianka
    1 ulubiony
intro:
e--------------------------------------|
h--------------------------------------|
g----------12--------10-------4------5-|
d------10----------9--------5------7---|
a--12-----------10--------7------8-----|
e--------------------------------------|

e--------------------------------------|
h-------------------------------8------|
g-------9--------7-------4------5------|
d----10--------9-------5------7--------|
a-12--------10-------7------8----------|
e--------------------------------------|

verse:
e-------------------------------------------|
h-------------------------------------------|
g--------9-----12-10-9--------7------10-9-7-|
d-----10--------------------9---------------|
a--12-------12-----------10------10---------|
e-------------------------------------------|

e------------------------------------------|
h------------------------------------------|
g-----4-----7-5-4--------5--7s9-7-5  ------|
d---5------------------7-------------------|
a-7------7-----------8---------------------|
e------------------------------------------|  cz.I
==========================================================================================

e--------------------------------------------|      cz.II
h------------------10------------------------|
g-------9------12-----9---------7-----10-9-7-|
d----10-----------------------9--------------|
a-12-------12--------------10------10--------|
e--------------------------------------------|

e----------------------------------|
h----------------------------------|
g------4----7-5-4------4-5----4-5--|
d----5-----------------------------|
a--7------7---------8-------8------|
e----------------------------------|

Chorus:
D      G A

Bridge:
 B  Gis e F

B 

 V   VI VII
-o-|---|-o-|
-o-|---|---|
-o-|-o-|---|
-o-|---|-o-|
-o-|---|---|
-o-|---|---|

Gis

III  IV  V
-o-|---|-o-|
-o-|---|---|
-o-|-o-|---|
-o-|---|-o-|
-o-|---|---|
-o-|---|---|

e

VII VIII IX
-o-|----|---|
-o-|--o-|---|
-o-|----|-o-|
-o-|----|-o-|
-o-|----|---|
-o-|----|---|

F

VIII IX  X
-o--|---|---|
-o--|---|---|
-o--|-o-|---|
-o--|---|-o-|
-o--|---|-o-|
-o--|---|---|


solo:
e-12-10-12-12----12---10-12---8^-5---------
h--------
g--------

e--10-8-10-10-10--8-10-12--8^-5------------
h--------
g--------

Can i get your hand to write on
Just a piece of leg to bite on
What a night to fly my kite on
Do you want to flash your light on
Take a alook its on display...for you
Coming down, no not today

Did you meet your fortune teller
Get it off with no propeller
Do it up its on with stella
What a way to finally smell her
Pickin up but not too strong...for you
Take a piece and pass it on

Fly away on my zephyr
I feel it more than ever
And in this perfect weather
We'll find a place together
Fly on..my wind

Rebel and a liberator
Find a way to be a skater
Rev it up to levitate her
Super friendly aviator
Take a look its on display
For you...comin down, no not today

[refren]

In the water where i centre my emotion
All the world can pass me by
Fly away on my zephyr
We'll find a place together

[refren]

In the water where i centre my emotion
All the world can pass me by
Fly away on my zephyr
We're going to live forever


Oceń to opracowanie

Kontrybucje
nianka

Wakacyjny Konkurs Śpiewnikowy

Pula nagród w konkursie ponad 10.000 zł!
Przysyłaj opracowania piosenek i zdobądź bony na zakupy w sklepie muzycznym.
Zapoznaj się z regulaminem konkursu.
anonim