Wakacyjny Konkurs Śpiewnikowy
Wakacyjny Konkurs Śpiewnikowy
Popraw Opracowanie Usuń
Transponuj
0

Sound of silence Simon & Garfunkel

Tekst piosenki i chwyty na gitarę

|------------------------------------------------------------0-0-------------0-0-----------0-0-0-2-3-3-2-0|
|---------------0-0-----------------------------0-0--3-3------3-------0-0-3-3------3---------------------3|
|----------0-0------2-------------2-2-0-0-0----------------------0-0-----------0-0------------------------|
|-2-2-2----------------0-0-4-4--------------------------------------------------------------------------------|
|------------------------------------------------------------------------------------------------------------------|
|------------------------------------------------------------------------------------------------------------------|


|----0-------------------------------------------------------------------------------------------------------------|
|-3----3-0--------3---------------------------------------------------------------------------------------------|
|------------0-0-0---------0------------------------------------------------------------------------------------|
|-----------------------4-4---2----------------------------------------------------------------------------------|
|------------------------------------------------------------------------------------------------------------------|
|------------------------------------------------------------------------------------------------------------------|




   e                               D
Hello darkness, my old friend
                                         e
I've come to talk with you again
                                       C  G
Because a vision softly creeping
                                         C  G
Left its seeds while I was sleeping
              C                                          G
And the vision that was planted in my brain

Still remains
                   D           e
Within the sound of silence


In restless dreams I walked alone
Narrow streets of cobblestone
'Neath the halo of a street lamp
I turned my collar to the cold and damp
When my eyes were stabbed by the flash of a neon light
That split the night
And touched the sound of silence

And in the naked light I saw
Ten thousand people, maybe more
People talking without speaking
People hearing without listening
People writing songs that voices never share
And no one dared
Disturb the sound of silence

"Fools", said I, "You do not know
Silence like a cancer grows
Hear my words that I might teach you
Take my arms that I might reach you"
But my words, like silent raindrops fell
And echoed
In the wells of silence

And the people bowed and prayed
To the neon god they made
And the sign flashed out its warning
In the words that it was forming
And the sign said, "The words of the prophets are written on the subway walls
And tenement halls"
And whispered in the sounds of silence

Em,D,C,G
Oceń to opracowanie
Ocena czytelników: Dobry+ 3 głosy

Kontrybucje
Adios720
  • Teledysk

Wakacyjny Konkurs Śpiewnikowy

Pula nagród w konkursie ponad 10.000 zł!
Przysyłaj opracowania piosenek i zdobądź bony na zakupy w sklepie muzycznym.
Zapoznaj się z regulaminem konkursu.
anonim