0
0

Sound of silence Simon

Capo na 6 progu

Ha ello darkness, my old friend, G 
I've come to talk with you again,a   
Because a vision softly creepinFg,        C 
Left it's seeds while I was slFeeping,       C 
And the viFsion that was planted in my brain            C 
Still remains     a   
Within the soundG of silence.      a   
In restless dreams I walked alone    G 
Narrow streets of cobblestone,       a   
'neath the halo of a strFeet lamp,         C 
I turned my collar to the Fcold and damp         C 
When my eyesF were stabbed by the flash of a neon light C 
That split the night        a   
And touched the sound oGf silence.          a   

GAnd in the naked light I saw
a Ten thousand people, maybe more.
FPeCople talking without speaking,
FPeCople hearing without listening,
FPeCople writing songs that voices never share
a And no one dare
GDia sturb the sound of silence.

GFools said i, you do not know
a Silence like a cancer grows.
FHeCar my words that I might teach you,
FTaCke my arms that I might reach you.
FBuCt my words like silent raindrops fell,
And echoed
GIna the wells of silence

GAnd the people bowed and prayed
a To the neon God they made.
FAnCd the sign flashed out it's warning,
FInC the words that it was forming.
FAnd the sign said, the words of the prophets

a AreC written on the subway walls
CAnd tenement halls.
GAna d whisper'd in the sounds of silence.

a e-|-----0-----0-----0-----0--|-----0-----0-----0-----0-|
B-|--------0-----------0------|--------0-----------0-----|
G-|--2-----------2------------|--2-----------2-----------|
D-|----------------------------|----------------------------|
A-|----------------------------|----------------------------|
E-|----------------------------|----------------------------|
Hello Darkness my old
G5e-|-----3-----3-----3-----3--|-----3-----3-----3-----------|
B-|----------------------------|-----------------------0-------|
G-|--------0-----------0-----|--------0-----------0---------|
D-|----------------------------|-------------------------------|
A-|----------------------------|-------------------------------|
E-|--3-----------3-----------|--3-----------3---------------|
friend, Ive come to talk with you a-
a e-|-----0-----------0--------|----C-0-----------0--------|
B-|-----------1-----------1--|-----------1-----------1--|
G-|--------2-----------2-----|--------0-----------0-----|
D-|--------------2------------|--2-----------2-----------|
A-|--0------------------------|---------------------------|
E-|---------------------------|----------------------------|
gain, Because a vision soft-
Fe-|-----1-----------0--------|-----0-------C----0--------|
B-|-----------0-----------1--|-----------1-----------1--|
G-|--------2-----------0-----|--------0-----------0-----|
D-|--3-----------------------|----------------------------|
A-|--------------3-----------|--3-----------3------------|
E-|--------------------------|-----------------------------|
ly creeping left its seeds while I
Fe-|-----1-----------0--------|-----0---------C--1--------|
B-|-----------0-----------1--|-----------1-----------1--|
G-|--------2-----------0-----|--------0-----------2-----|
D-|---------------------------|--------------------------|
A-|--------------3-----------|--3-----------------------|
E-|--1-----------------------|--------------1-----------|
was sleeping and the vision
Fe-|-----1-----------1--------|-----1-----------C0--------|
B-|-----------1-----------1--|-----------1-----------1--|
G-|--------2-----------2-----|--------2-----------0-----|
D-|--------------------------|-----------------------------|
A-|--------------------------|----------------3-----------|
E-|--1-----------1-----------|--1-----------------------|
that was planted in my brain,
Fe-|-----0-----C------0C/B--------|a -----0-----0--C------------|
B-|--------------------1-----|--------1-----------1--0--|
G-|--------------------------|-----2-----------0----------|
D-|--------3--2--------------|----------------------------|
A-|--3-----------3--------2--|--0-----------3-----------|
E-|--------------------------|-----------------------------|
still remains within the
G/Be-|-G----3-----------3--------asus2 |-----0-----0-----0-----0--|
B-|-----------0-----------0--|--------0-----------0-----|
G-|--------0-----------0-----|--2-----------2-----------|
D-|--------------------------|-----------------------------|
A-|--2-----------------------|----------------------------|
E-|--------------3-----------|----------------------------|
Sounds of Silence


Oceń to opracowanie
Ocena czytelników: Niczego sobie+ 16 głosów
Kontrybucje:
Tasza
Tasza
anonim