0
0

Sound of Silience Simon

Tekst piosenki i chwyty na gitarę

  • Chwyty na gitarę Konrad Rachwalik
    20 ulubionych
Sound Of Silience – Simon & Garfunkel

capo 6th fret

E|-asus2--0---0---0---0-|---0---0---0---0-|-G----------------|-----------------|
H|-----0-------0---|-----0-------0---|---0---0---0---0-|---0---0---0---0-|
G|-2-------2-------|-2-------2-------|-----0-------0---|-----0-------0---|
D|-----------------|-----------------|-----------------|-----------------|
A|-0---------------|-----------------|-----------------|-----------------|
E|-----------------|-----------------|-3-------3-------|-3-------3-------|

E|-a--0-------0-----|---0-----C--0-----|-F--1-----C--0-----|---0-------0-----|
H|-------1-------1-|-------1-------1-|-------1-------1-|-------1-------1-|
G|-----2-------2---|-----2-------0---|-----2-------0---|-----0-------0---|
D|-----------------|-----------------|-----------------|-----------------|
A|-0-------0-------|-0-------3-------|---------3-------|-3-------3-------|
E|-----------------|-----------------|-1---------------|-----------------|

E|-F--1-----C--0-----|---0-----F--1-----|---1-------1-----|---1-----C--0-----|
H|-------1-------1-|-------1-------1-|-------1-------1-|-------1-------1-|
G|-----2-------0---|-----0-------2---|-----2-------2---|-----2-------0---|
D|-----------------|-----------------|-----------------|-----------------|
A|---------3-------|-3---------------|-----------------|---------3-------|
E|-1---------------|---------1-------|-1-------1-------|-1---------------|

E|---0-------0-----|-a--0-----C--0-----|-G----------------|-asus2--0---0---0---0-|-a0-|
H|-----------------|---------------1-|---0---0---0---0-|-----0-------0---|-1-|
G|-------------0---|-----2-------0---|-----0-------0---|-2-------2-------|-2-|
D|-----3-2---------|-----------------|-----------------|-----------------|-2-|
A|-3-------3-----2-|-0-----2-3-------|-----------------|-----------------|-0-|
E|-----------------|-----------------|-3-------3-------|-----------------|-0-|


[Zwrotka 1] - grana na powyższej tabulaturze

a    Hello darkness, my old frGiend
G    I've come to talk with yoau again
Because a vision softlFy creepCing
Left its seeds while I wFas sleepCing
And the vFision that was planted in my brCain
Still remains a 
Within the sGound of sailence


[Zwrotka 2]

a     In restless dreams I walked Galone
G     Narrow streets of cobblestaone
'Neath the haloF of a streCet lamp
I turned my collar to the cFold and dCamp
When my eFyes were stabbed by the flash of a neon lCight
That split the night  a 
And touched the sGound of sailence


[Zwrotka 3]

a      And in the naked light I sGaw
G      Ten thousand people, maybe maore
People talking withFout speakCing
People hearing withFout listenCing
People writing sFongs that voices never shCare
And no one dared   a 
Disturb the sGound of sailence


[Zwrotka 4]

a     "Fools", said I, &quoGt;You do not know
G      Silence like a cancer garows
Hear my words that I mFight teach yCou
Take my arms that I miFght reach yoCu"
But my wFords, like silent raindrops fCell   a 
And Cechoed
In the wGells of sailence


[Zwrotka 5]

a      And the people bowed and prGayed
G      To the neon god they maade
And the sign flashed out Fits warnCing
In the words that it wFas formCing
And the sign said, "FThe words of the prophets are written on the suCbway walls
And tenement halls"a 
And whCispered in the sGounds of sailence



[Outro]

E|---0---0---0---0-|---0---0---0---0-|---0---0---0---0-|-0---------------|
H|-----0-------0---|-----0-------0---|-----0-------0---|-0---------------|
G|-2-------2-------|-2-------2-------|-2-------2-------|-2---------------|
D|-----------------|-----------------|-----------------|-2---------------|
A|-----------------|-----------------|-----------------|-0---------------|
E|-----------------|-----------------|-----------------|-0---------------|


Oceń to opracowanie
Ocena czytelników: Niczego sobie 4 głosy
Kontrybucje:
Konrad Rachwalik
Konrad Rachwalik
anonim