Popraw Opracowanie
Transponuj
0

Surfacing Slipknot

TUNING: down 1.5 steps and then drop d (B-F#-B-E-G#-C#)


     FIGURE 1:

   C#|-20-bend-|
   G#|---------|
    E|---------|
    B|---------|
   F#|---------|
    B|---------|

     FIGURE 1A:

   C#|-21-21-20-----|
   G#|--------------|
    E|--------------|
    B|--------------|
   F#|--------------|
    B|--------------|

     FIGURE 2:

   C#|-----------------|
   G#|-----------------|
    E|-----------------|
    B|-----------------|
   F#|-----------------|
    B|-0---1---x-x-1---|

     FIGURE 3:

   C#|-----------------|
   G#|-----------------|
    E|-----------------|
    B|-0---1---x-x-1---|
   F#|-0---1---x-x-1---|
    B|-0---1---x-x-1---|

     FIGURE 4:

   C#|-----------------|
   G#|-----------------|
    E|-----------------|
    B|-x-x-1---x-x-1---|
   F#|-x-x-1---x-x-1---|
    B|-x-x-1---x-x-1---|

     FIGURE 4A:

   C#|-----------------|
   G#|-----------------|
    E|-----------------|
    B|-x-x-1---x-x-3-2-|
   F#|-x-x-1---x-x-1-0-|
    B|-x-x-1---x-x-----|

     FIGURE 5:

   C#|-----------------|-----------------|
   G#|-----------------|-----------------|
    E|-----------------|-----------------|
    B|-----------------|-----------------|
   F#|-------7-6-0-----|-----4-4---------|
    B|-7-6-0-------7-6-|-4-4-----4-4-4-4-|

     FIGURE 6:

   C#|-----------------|-----------------|
   G#|-----------------|-----------------|
    E|-----------------|-----------------|
    B|-3---2---1---2---|-9---8---6---2---|
   F#|-3---2---1---2---|-9---8---6---2---|
    B|-3---2---1---2---|-9---8---6---2---|

     ORDER:

    Fig1  x 32
    Fig2  x 16 come in on 8th time round of Fig1
    Fig3  x 16
    Fig4  x 8
    Fig1  x 16
    Fig3  x 8
    Fig1  x 8
    Fig1a x 8
    Fig3  x 8
    Fig4  x 16
    After Bass
    Fig5  x 5
    Fig5  x 4 Palm Muted
    Fig6  x 8
    Fig1+2x 16
    Fig3  x 16
    Fig4a x 8
    Fig4  x 16

Oceń to opracowanie

Kontrybucje
s314ryt

Wakacyjny Konkurs Śpiewnikowy

Pula nagród w konkursie ponad 10.000 zł!
Przysyłaj opracowania piosenek i zdobądź bony na zakupy w sklepie muzycznym.
Zapoznaj się z regulaminem konkursu.
anonim