Popraw Opracowanie
Transponuj
0

Bitwa Szanty

Tekst piosenki i chwyty na gitarę

  • Chwyty na gitarę PSEUDO
    21 ulubionych
zwrotka:
     e             D             C             a
E1 |-0-----0-----|-------------|-------------|------------|
H2 |----0--------|-3-----3-----|-1--3-1--0---|------------|
G3 |-------------|----4--------|-------------|-2----------|
D4 |-------------|-------------|-------------|------------|
A5 |-------------|-------------|-------------|------------|
E6 |-------------|-------------|-------------|------------|

     e               D           G          H7
E1 |-------------|-------------|-------------|------------|
H2 |-------0-----|-------------|------------0|------------|
G3 |-0--2-----0--|---2--2-0----|-0--0--0--2--|------------|
D4 |-------------|-----------4-|-------------|------------|
A5 |-------------|-------------|-------------|------------|
E6 |-------------|-------------|-------------|------------|

     e             D             C             a
E1 |-0-----0-----|-------------|-------------|------------|
H2 |----0--------|-3-----3-----|-1--3-1--0---|------------|
G3 |-------------|----4--------|-------------|-2----------|
D4 |-------------|-------------|-------------|------------|
A5 |-------------|-------------|-------------|------------|
E6 |-------------|-------------|-------------|------------|

     e               D           G          H7
E1 |-------------|-------------|-------------|------------|
H2 |-------0-----|-------------|-------------|-0----------|
G3 |-0--2-----0--|---2--2-0----|-0--0--0--2--|----2--0----|
D4 |-------------|-----------4-|-------------|----------4-|
A5 |-------------|-------------|-------------|------------|
E6 |-------------|-------------|-------------|------------|

refren:
     G             D             e             h
E1 |-------------|-------------|-------------|------------|
H2 |-------0-----|-------------|-------------|------------|
G3 |-0-----------|-2--0--------|-------------|------------|
D4 |-------------|-------4--0--|-2-----0-----|----0-------|
A5 |-------------|-------------|-------------|-2----------|
E6 |-------------|-------------|-------------|------------|

     C             D             e
E1 |-------------|-------------|-------------|
H2 |-------------|-------------|-------------|
G3 |-----0-------|----2--------|-------------|
D4 |-2-4---------|-4-----4--0--|-2-----------|    X2
A5 |-------------|-------------|-------------|
E6 |-------------|-------------|-------------|

1.
e          D              C         a
Okręt nasz wpłynął w mgłę i fregaty dwie
     e    D             G             H7
Popłynęły naszym kursem by nie zgubić się.
e            D            C            a
Potem szkwał wypchnął nas poza mleczny pas
       e     D                 G          H7
I nikt wtedy nie przypuszczał, że fregaty śmierć nam niosą.

 Ref.
   G      D           e       h
   Ciepła krew poleje się strugami,
   C         D           e
   Wygra ten kto utrzyma szyk.
   G            D              e     h
   W huku dział ktoś przykryje się falami,
   C          D       e
   Jak da Bóg ocalimy bryg.

2.
Nagły huk w uszach grał i już atak trwał,
To fregaty uzbrojone rzędem w setkę dział.
Czarny dym spowił nas, przyszedł śmierci czas.
Krzyk i lament mych kamratów, przerywany ogniem katów.

3.
Pocisk nasz trafił w maszt, usłyszałem trzask,
To sterburtę rozwaliła jedna z naszych salw.
"Żagiel staw" krzyknął ktoś, znów piratów złość,
Bo od rufy nam powiało, a fregatom w mordę wiało.

4.
Z fregat dwóch tylko ta pierwsza w pogoń szła,
Wnet abordaż rozpoczęli gdy dopadli nas.
Szyper ich dziury dwie zrobił w swoim dnie,
Nie pomogło to psubratom, reszta z rei zwisa za to.

5.
Po dziś dzień tamtą mgłę i fregaty dwie,
Kiedy noc zamyka oczy widzę w swoim śnie.
Tamci co śpią na dnie, uśmiechają się,
Że ich straszną śmierć pomścili bracia, którzy zwyciężyli

Oceń to opracowanie
Ocena czytelników: Dobry+ 145 głosów

Kontrybucje
PSEUDO
gosjusz
  • Teledysk

Wakacyjny Konkurs Śpiewnikowy

Pula nagród w konkursie ponad 10.000 zł!
Przysyłaj opracowania piosenek i zdobądź bony na zakupy w sklepie muzycznym.
Zapoznaj się z regulaminem konkursu.
anonim
Wszystkie komentarze
Znaleziono 19 komentarzy.
  • Anonimowy użytkownik
    Jackiewicz 3 miesiące temu

    Super

  • Anonimowy użytkownik
    Juszczu 5 miesięcy temu

    W tabulaturze zamiast grać ostanie "4 57" lepiej zagrać 402 na strunie D.

  • Anonimowy użytkownik
    Trassus 8 miesięcy temu
  • Anonimowy użytkownik
    AnglERz 1 rok temu

    WSZYSCY CO TU SÄ„, W TEKSCIE JEST SZYK NIE SHIP, W ORYGINALNYM TEKSCIE W ÅšPIEWNIKACH JEST SZYK.

  • Anonimowy użytkownik
    Druhna Ania 1 rok temu

    Bardzo lubię szantę.
    MOIM zdaniem powinno być "bo od rufy nam powiało, a fregatom w mordę wiało" i "wygra ten co utrzyma ship" :D

  • Anonimowy użytkownik
    Ktoś lol 1 rok temu

    Lol

  • Anonimowy użytkownik
    akordeonista 1 rok temu

    A ja spiewam jeszcze inaczej:
    Wygra ten kto dotrzyma sił

  • Anonimowy użytkownik
    Druhenka 1 rok temu

    W moim środowisku śpiewamy "szyk", woec pewnie jest wiele wersji. Szanta super ;))

  • Anonimowy użytkownik
    Nadest 1 rok temu

    Halo ludzie każdy śpiewa inaczej :)

  • Anonimowy użytkownik
    Akato ! 1 rok temu

    Powinno być : Wygra ten kto utrzyma SHIFT ;-)

Wszystkie komentarze