Popraw Opracowanie
Transponuj
0

Piosenka księżycowa Varius Manx

Tekst piosenki i chwyty na gitarę

a              G
Śpisz pięknie tak
F                G
Po kątach cisza gra
F                     e
Szkoda słów resztę dopowie księżyc
 a            G
Śpisz staram się
 F                  G
Oddychać szeptem pościel jeszcze pachnie
F   e           a
Ogniem naszych ciał

     d          e            d
ref. Kiedyś znajdę dla nas dom
                G          d
     Z wielkim oknem na świat
              e             d
      Znowu zaczniesz ufać mi
              G           d
      Nie pozwolę ci się bać
                 e             d
      Kiedyś wszystkie czarne dni
          G              d
      Obrócimy w dobry żart
                e          d  G
      Znowu będziesz ufał mi
              a   G
      Teraz śpij

Wiem dobrze wiem
Potrafię ranić tak jak nikt
Przykro mi nie wiem co robić gdy płaczesz
Już nie śmiejesz się jak kiedyś
Wszystko jest inaczej
Kolejny raz proszę się o ostatnią szansę

Oceń to opracowanie
Ocena czytelników: Niczego sobie+ 18 głosów

Kontrybucje
Redakcja
Pan Wywrotek
  • Teledysk

Współpraca

W wiki-śpiewniku Wywroty możesz poprawiać istniejące opracowania i zdobywać punkty karmy. Zapoznaj się z zasadami kontrybucji.
anonim
Znaleziono 8 komentarzy.
  • Anonimowy użytkownik
    elo 1 rok temu

    Refren jest źle. Powinno być d e F G

  • Marcelina Pukownik

    -0--------0----------5---3--0------------------------------------------5---3--0----------------------------------
    ----3--1--------------------------3---1---3---1--0--3-----------------------------3--1--------------------------
    --------------2--------------------------------------------0---0---0-----------------------------------------------
    ---------------------------------------------------------------------------------------------------------------------
    ---------------------------------------------------------------------------------------------------------------------


    --0--------0-----5--3--0-----------------------------5--3--0------------0-------------------------------------
    -----3--1--------------------------1-3--3--1--3--3--------------3--1------------------------------------------
    --------------2--------------3--1---------------------------------------------------------------------------------
    --------------------------------------------------------------------------------------------------------------------
    -------------------------------------------------------------------------------------------------------------------
    -------------------------------------------------------------------------------------------------------------------

    ref
    5--5--3--0----------------0--1--3--1--0--------------------5--5--3--0---------0----------0--1-3-1-0-------0
    ---------------3--3--1----------------------3--1--1--3--------------------3--3------3--1----------------3--1--
    -------------------------2---------------------------------2--------------------------------------------------------
    --------------------------------------------------------------------------------------------------------------------
    --------------------------------------------------------------------------------------------------------------------
    --------------------------------------------------------------------------------------------------------------------



    ---7-8-7-5-3-3-0-5-5-5-3-0-----0-------0--1--3-0-3-8-5-0-0-1-0---------------------------------------
    ----------------------------------3----3-1--------------------------------------------------------------------
    ----------------------------------------------------------------------------------------------------------------
    ----------------------------------------------------------------------------------------------------------------
    ----------------------------------------------------------------------------------------------------------------
    ----------------------------------------------------------------------------------------------------------------

  • olga
    olga 11 lat temu

    od razu przypomnial mi sie jeden z przegladow piosenki podczas ktorego zaspiewalam ta piosenke. hehe i przesluchania do zespolu. Maciek dzieki tobie ta piosenka wychodzi mi jeszcze lepiej niz kiedys... dzieki

  • Anonimowy użytkownik
    gaf 12 lat temu

    te chwyty stanowczo mi nie pasują, na wywrocie jest jeszcze lepsze opracowanie. Pozdrawiam.

  • Anonimowy użytkownik
    miętówka 12 lat temu

    jest taaaaka omantyczna.........

  • Anonimowy użytkownik
    puma 15 lat temu

    Bardzo mi sie podoba ta pisenka...

  • Anonimowy użytkownik
    sysia 15 lat temu

    jeszcze się pytasz??????????
    jest po prostu świeta!

  • Anonimowy użytkownik
    halycon69 15 lat temu

    suuuuuuuuuuuuuuuuupeeeeeeeeeeer pioseneczka