0
0

Mam tylko Ciebie Virgin

Intro takie jak początek zwrotki.

 [zwrotka]:

 d                  g                  B        A        |
 E|-------------------|------5---3-------------------------  |
 H|------6---5---5-6--|----3---3-----3--------6--------5---  |
 G|----7---7---7------|------------3---3----7---7----6---6-  |
 D|-------------------|--5---------------------------------  |
 A|--5----------------|-------------------8--------7-------  |
 E|-------------------|------------------------------------  |
 |x2                                    |
 Kiedy noc...                                             |x2


 [mostek]:

 g                B                F        A        d
 E|----------3------------6-------6------------------------------
 H|------3-------3-------------------------1--------2--------3---
 G|----3---3---3---3----7---7---7--7-----2---2----2---2----2-----
 D|--5----------------8-------8--------3--------2--------0-------
 A|--------------------------------------------------------------
 E|--------------------------------------------------------------

 W snach...

 g                  B               A
 E|-----------3------------6-------6------------------
 H|-------3-------3--------------------5--5--5--5--5--
 G|-----3---3---3---3----7---7---7--7--6--6--6--6--6--
 D|---5----------------8---------------7--7--7--7--7--
 A|------------------------------------7--7--7--7--7--
 E|---------------------------------------------------

 W snach....

 [refren]:

 g           d e F
 Mam tylko...
 g           A
 Mam tylko...

 [outro]:

 g a B C d e F g

Oceń to opracowanie
Ocena czytelników: Słaby+ 3 głosy
Kontrybucje:
Robert
Robert
anonim
  • Anonimowy użytkownik
    nieznajomy JAN 4 lata temu

    podoba misię